Song name
# A B C D E F G H I J K L M N O P Q R S T U V W X Y Z

Placebo - Infra-red Live tab

Placebo 

Infra Red Live (Brians Part) :

Tuning: F Bb Eb Ab C C

                           [INFRA RED]


One last thing before I shuffle off the planet,
I will be the one to make you crawl,
So I came down to wish you and unhappy birthday.


Someone call the ambulance



 There's...... gonna....... be.......... an............ accident
|---------------------------------------------------------------|
|---------------------------------------------------------------|
|---------------------------------------------------------------|
|7-7-7-7-7-7-7-7-7-7-7-7-7-7-7-7-7-7-7-7-7-7-7-7-7-7-7-7-7-7-7-7|
|7-7-7-7-7-7-7-7-7-7-7-7-7-7-7-7-7-7-7-7-7-7-7-7-7-7-7-7-7-7-7-7|
|5-5-5-5-5-5-5-5-5-5-5-5-5-5-5-5-5-5-5-5-5-5-5-5-5-5-5-5-5-5-5-5|    


 I'm.. coming.. up. on. infrared, there. is. no.running that can
|---------------------------------------------------------------|
|---------------------------------------------------------------|
|9-9-9-9-9-9-9-9-9-9-9-9-9-9-9-9-y-y-y-y-y-y-y-y-y-y-y-y-y-y-y-y|
|9-9-9-9-9-9-9-9-9-9-9-9-9-9-9-9-y-y-y-y-y-y-y-y-y-y-y-y-y-y-y-y|
|7-7-7-7-7-7-7-7-7-7-7-7-7-7-7-7-9-9-9-9-9-9-9-9-9-9-9-9-9-9-9-9|
|---------------------------------------------------------------(-->y = 11 )


 hide... you..... coz.... I.... can.... see... in.. the.....dark
|---------------------------------------------------------------|
|---------------------------------------------------------------|
|---------------------------------------------------------------|
|7-7-7-7-7-7-7-7-7-7-7-7-7-7-7-7-7-7-7-7-7-7-7-7-7-7-7-7-7-7-7-7|
|7-7-7-7-7-7-7-7-7-7-7-7-7-7-7-7-7-7-7-7-7-7-7-7-7-7-7-7-7-7-7-7|
|5-5-5-5-5-5-5-5-5-5-5-5-5-5-5-5-5-5-5-5-5-5-5-5-5-5-5-5-5-5-5-5|


 I'm. coming. up.. on.. infrared, forget. your.. running, I will  
|---------------------------------------------------------------|
|---------------------------------------------------------------|
|9-9-9-9-9-9-9-9-9-9-9-9-9-9-9-9-7-7-7-7-7-7-7-7-7-7-7-7-7-7-7-7|
|9-9-9-9-9-9-9-9-9-9-9-9-9-9-9-9-7-7-7-7-7-7-7-7-7-7-7-7-7-7-7-7|
|7-7-7-7-7-7-7-7-7-7-7-7-7-7-7-7-5-5-5-5-5-5-5-5-5-5-5-5-5-5-5-5|
|---------------------------------------------------------------|


  find you.....
|---------------------------------------------------------------|
|---------------------------------------------------------------|
|---------------------------------------------------------------|
|6-6-6-6---6--6--6--6-------6-6-6-6--6--6--6--6-----------------|
|6-6-6-6---6--6--6--6-------6-6-6-6--6--6--6--6-----------------|
|4-4-4-4---4--4--4--4-------4-4-4-4--4--4--4--4-----------------| 



One more thing before we start the final face-off,
I will be the one to watch you fall,
So I came down to crash and burn your begger's banquet.


Someone call the ambulance

SAME ^
     | 
     | :


I'm coming up in infrared, there is no running that can hide you,
coz I can see in the dark.
I'm coming up on infrared, forget your running, I will find you.
(find you)

.........
.........
AT THE END PLAY THIS:

  find you.....
|---------------------------------------------------------------|
|---------------------------------------------------------------|
|---------------------------------------------------------------|
|6-6-6-6---6--6--6--6-------6-6-6-6--6--6--6--6-----------------|
|6-6-6-6---6--6--6--6-------6-6-6-6--6--6--6--6-----------------|
|4-4-4-4---4--4--4--4-------4-4-4-4--4--4--4--4-----------------| 
Tap to rate this tab
# A B C D E F G H I J K L M N O P Q R S T U V W X Y Z