Song name
# A B C D E F G H I J K L M N O P Q R S T U V W X Y Z

Placebo - Because I Want You Acoustic tab

Placebo
Because I Want You
(acoustic version)

Intro chord:
E -----0------|
B -----9------|
G -----9------|
D -----7------|
A -----0------|
E -----x------|

Verse:

   Fall into you, is all I seem to do
E -----0---------------------------x------|
B -----9---------------------------0------|
G -----9---------------------------6------|
D -----7---------------------------6------|
A -----0---------------------------4------|
E -----x---------------------------x------|

   When I hit the bottle, coz I'm afraid to be alone
E -----x-----------x----x------------------------0-|
B -----0-----------0----0------------------------9-|
G -----6-----------9----4------------------------9-|
D -----6-----------9----4------------------------7-|
A -----4-----------7----2------------------------0-|
E -----x-----------x----x------------------------x-|

the same theme for the whole Verse

Chorus:

Because I want you too    Because I want you too    Because I want you too...
E ------------------x---------------------------------------------------x--|
B ------------------0---------------------------------------------------0--|
G ------------------9---------------------------------------------------6--|
D ------------------9---------------------------------------------------7--|
A ------------------7---------------------------------------------------7--|
E ------------------x---------------------------------------------------5--|

and then again Verse

during Chorus E chord can be played as simple on the 1st fret and A chord as well

End chord:
E -----0------|
B -----0------|
G -----1------|
D -----2------|
A -----2------|
E -----0------|


Looks simple but correct

for propositions: lookstaff@ukr.net
Lennikov Andrey
Tap to rate this tab
# A B C D E F G H I J K L M N O P Q R S T U V W X Y Z