Song name
# A B C D E F G H I J K L M N O P Q R S T U V W X Y Z

Placebo - Come Home tab

Verse/Intro:

C  --------------------------------------------------------------------------
C  --------------------------------------------------------------------------
G# --------------------------------------------------------------------------
D# -9-9--9-9-9-9--9-9-9-9-9--9-9--9-9-9-9------------------------------------
A# -8-8--8-8-8-8--8-8-8-8-8--8-8--8-8-8-8-7-7--7-7-7-7--7-7--7-7-7-7-7-7-7-7-Repeat
F  ---------------------------------------8-8--8-8-8-8--8-8--8-8-8-8-8-8-8-8-

Chorus (This is also played at the very end):

C  ----------------------------------------------------------------
C  ----------------------------------------------------------------
G# ----------------------------------------------------------------
D# -17-17-17-17-17-17-17-17-17-17--9-9-9-9-9-10-10-10-10-10-10-10--
A# ----------------------------------------------------------------Repeat
F  ----------------------------------------------------------------

Weird bit: 

C  -0-------0---------------------
C  -0-------0-------<0>-----------
G# -4-------4-----------<0>-------
D# -5-------5--<0>----------------Repeat
A# ---------0---------------------
F  -------------------------------

When the weird bit picks up:

C  -0-0-0-0--0-0-0-0-0-0-0-0-0-0-0--0--0--0---0-------<0>-----------
C  -0-0-0-0--0-0-0-0-0-0-0-0-0-0-0--0--0--0---0------<0>-----<0>----
G# -4-4-4-4--4-4-4-4-4-4-4-4-4-4-12-12-12-9---9-----<0>---------<0>-
D# -5-5-5-5--5-5-5-5-5-5-5-5-5-5-12-12-12-9---9----<0>---<0>--------Repeat
A# -----------------------------------------------<0>---------------
F  ----------------------------------------------<0>----------------

<0> Are the strings you need to pluck/strum behind the bridge.
Tap to rate this tab
# A B C D E F G H I J K L M N O P Q R S T U V W X Y Z