Song name
# A B C D E F G H I J K L M N O P Q R S T U V W X Y Z

Placebo - Swallow tab

In wierd tuning (G# G# G# G# B C#)

   *****************harmonic***************
|--12----7----12----7----12----7----12----7--|
|--12----7----12----7----12----7----12----7--|
|--12----7----12----7----12----7----12----7--|
|--12----7----12----7----12----7----12----7--|
|--12----7----12----7----12----7----12----7--|
|--12----7----12----7----12----7----12----7--|
Rhy fig.1 intro

*****************************************
|--------7----------0----------10----------7--|
|--------7----------7-----------7----------7--|
|--------0----------0-----------0----------0--|
|--0--0-------0--0-------0--0--------0--0-----|
|--0--0-------0--0-------0--0--------0--0-----|
|---------------------------------------------|
Rhy fig.2

|--0--0--0--0--0--0--0--0--0--0--0--0--2--2--2--2--2--2--2--2--2--2--|
|--2--2--2--2--2--2--2--2--2--2--2--2--2--2--2--2--2--2--2--2--2--2--|
|--0--0--0--0--0--0--0--0--0--0--0--0--0--0--0--0--0--0--0--0--0--0--|
|--0--0--0--0--0--0--0--0--0--0--0--0--0--0--0--0--0--0--0--0--0--0--|
|--------------------------------------------------------------------|
|--------------------------------------------------------------------|
Rhy fig.3

|--2--2--2--2--2--2--2--2--2--2--2--2----2----2--|
|--2--4--4--4--4--4--4--4--4--4--4--4----2----2--|
|--0--0--0--0--0--0--0--0--0--0--0--0----2----1--|
|--0--0--0--0--0--0--0--0--0--0--0--0----0----0--|
|------------------------------------------------|
|------------------------------------------------|
Tap to rate this tab
# A B C D E F G H I J K L M N O P Q R S T U V W X Y Z