Song name
# A B C D E F G H I J K L M N O P Q R S T U V W X Y Z

Placebo - Crawl tab

Help us improve GuitareTab! Take a short survey!
Placebo Guitar Tablature
Song: The Crawl
Release: "Without You I'm Nothing"

Tabbed By Scott Andrews
Revised By TheInquisitions@yahoo.com

Standard Placebo Tuning

----------------------------------------------------------------|
----------------------------------------------------------------|
-14-12-10-10-10-10--12-10-9--9-9-9----9----9----9----9----9--9--|
-0--0--0--0--0--0---0--0--0--0-0-0----10---10---10---10---10-10-|
------------------------------------0----0----0----0----0-------|
----------------------------------------------------------------|

------------------------------------------------|
------------------------------------------------|
-----7---7------7----7-----7---7-9-9---9---9----|
-----7---7------7----7-----7---7-7-7---7---7----|
-8-8---8----8-8---8-----0----0-------0---0------|
------------------------------------------------|

---------------------------------------------------------------------------|
---------------------------------------------------------------------------|
-------12----12-------12----12-----10----10------------------------------7-|
----12----12-------12-----------------10-----------12----12----11----11--0-|
-10-------------10--------10----8------------8--13---13-----12---12--------|
---------------------------------------------------------------------------|

--------------------------------------------|
--------------------------------------------|
---------------------------------------7----|
---------------12----12-----11----11--0-----|
-------8--13-----13-----12-----12-----------|
--------------------------------------------|
Related for Crawl tab