Song name
# A B C D E F G H I J K L M N O P Q R S T U V W X Y Z

Placebo - One Of A Kind tab

----------------------------------------------------------------------------
			     ONE OF A KIND - Placebo
----------------------------------------------------------------------------
Tabbed by: Stumaster18
Email:????

Tuning: Standard


No guitar in Intro or Verse

Pre-Chorus:
e|----------|
B|----------|
G|-10-------|
D|--x-(x16)-| x1
A|--8-------|
E|----------|

Chorus:
e|-------------------|
B|-------------------|
G|-11-------10-------|
D|--x-(x16)--x-(x16)-| x4
A|--9--------8-------|
E|-------------------|

Verse 2: No guitar

Pre-Chorus:
e|----------|
B|----------|
G|-10-------|
D|--x-(x16)-| x1
A|--8-------|
E|----------|

Chorus 2:
e|-------------------|
B|-------------------|
G|-11-------10-------|
D|--x-(x16)--x-(x16)-| x4
A|--9--------8-------|
E|-------------------|

Verse 3: No Guitar

Pre-Chorus:
e|----------|
B|----------|
G|-10-------|
D|--x-(x16)-| x1
A|--8-------|
E|----------|

Chorus 3:
e|-------------------|
B|-------------------|
G|-11-------10-------|
D|--x-(x16)--x-(x16)-| x8
A|--9--------8-------|
E|-------------------|


End. Pretty simple song. Enjoy!
Tap to rate this tab
 
# A B C D E F G H I J K L M N O P Q R S T U V W X Y Z