Song name
# A B C D E F G H I J K L M N O P Q R S T U V W X Y Z

Placebo - Johnny And Mary tab

Help us improve GuitareTab! Take a short survey!
Placebo
Johnny and Mary

Tabbed by: Daniel Hill
http://www.thelostwoods.com

(Guitar)

Intro:

G#5

Verse:

G#5 F5

Pre-Chorus:

E--------------------------------------------------------|
B--------------------------------------------------------|
B--------------------------------------------------------|
D--5-5-5-5-5-6-6-6-6-6-6-6-10-10-10-10-10-8-8-8-8-8-8-8--|
A--------------------------------------------------------|
E--------------------------------------------------------|

Chorus/Solo:

E-----------|--------------|-----------|---------|
B-----------|--------------|-----------|---------|
G-----------|--------------|-----------|---------|
D--3-5-6-8--|--10-10-10-8--|--6-6-6-5--|--5------|
A-----------|--------------|-----------|----3-3--|
E-----------|--------------|-----------|---------|

E-----------|--------------|-----------|---------|
B-----------|--------------|-----------|---------|
G-----------|--------------|-----------|---------|
D--3-5-6-8--|--10-10-10-8--|--6-6-6-5--|--5^-----|
A-----------|--------------|-----------|---------|
E-----------|--------------|-----------|---------|

E--------------|-------------------|
B--------------|-------------------|
B--------------|-------------------|
D--10-8-6-5-3--|--3-5-6-8-10-11-8--|
A--------------|-------------------|
E--------------|-------------------|

Outro:

E-------|
B-------|
G-------|
D--8^~--|
A-------|
E-------|


(Bass)

Verse/Chorus/Solo:

G-------------------------------------------------------------------|
D-------------------------------------------------------------------|
A--4-4-4-4-4-4-4-4-4-4-4-4-4-4-4-4----------------------------------|
E----------------------------------1-1-1-1-1-1-1-1-1-1-1-1-1-1-1-1--|


Pre-Chorus:

G---------------------------------------------------|
D--------------------------6-6-6-6-6-6-6-6-6-6-6-6--|
A--4-4-4-4-4-4-4-4-4-4-4-4--------------------------|
E---------------------------------------------------|
Related for Johnny And Mary tab