Song name
# A B C D E F G H I J K L M N O P Q R S T U V W X Y Z

Placebo - Dairy Queen tab

Tuning: Standard

Intro/Verse  *palm muted*
e|---------------------------------------------------------------------|
b|---------------------------------------------------------------------|
G|---------------------------------------------------------------------|
D|---------------------------------------------------------------------|
A|-4-4-4-5-4-4-4--0-0-0-0-0-0-0--42-2-2-2-2-2-2-2-2-2-2-5-5-4-2-2-2p0--|
E|-5-5-5-5-5-5-5--2-2-2/5-5-5-5--0-0-0-0-0-0-0-0-0-0-0-0-0-0-0-0-0-0-0-|

Chorus (Distortion
e|---------------------------------------------------------------------|
b|---------------------------------------------------------------------|
G|---------------------------------------------------------------------|
D|-0-0-0-0-0-0-0--0-0-0-0-0-0-0--0-0-0-0-0-0-0-0-0-0-0-0-0-0-0-0-0-0-0-|
A|-4-4-4-5-4-4-4--0-0-0-0-0-0-0--42-2-2-2-2-2-2-2-2-2-2-5-5-4-2-2-2p0--|
E|-5-5-5-5-5-5-5--2-2-2/5-5-5-5--0-0-0-0-0-0-0-0-0-0-0-0-0-0-0-0-0-0-0-|

Rock out
e|-------------------------------------------------------------|
b|-------------------------------------------------------------|
G|-6-6---6-6-6-6---------------------------------------------2-|
D|-6-6-7-6-6-6-6--4-4/7-7-6-4-4-4-4-4-4-4-4-4-4--7-7-6-4-4-4-2-|
A|-4-4-5-4-4-4-4--4-4/7-7-42-2-2-2-2-2-2-2-2-2--5-5-4-2-2-2-0--|
E|-4-4-5-4-4-4-4--2-2/5-5--------------------------------------|

Solo
e|-9-9-9-7-7----------------9v-7v-9v-7--|v
b|-----------7-10-10-10-9---------------|
G|------------------------9-------------|
D|--------------------------------------|
A|--------------------------------------|
E|--------------------------------------|
Tap to rate this tab
 
# A B C D E F G H I J K L M N O P Q R S T U V W X Y Z