Song name
# A B C D E F G H I J K L M N O P Q R S T U V W X Y Z

Placebo - Eyesight To The Blind tab

Eyesight to the Blind

Tabbed by Joey Whipp

Normal Tuning [E A D G B E]

[VERSE]
          "you dont know me.."
e|--3-3-3-0-0-0-0-3-0-0-0-0|           |-----------------------------|
b|--1-1-1-1-1-1-1-1-1-0-3-0|           |-----------------------------|
g|--2-2-2-2-2-2-2-2-2-2-2-2|  2x then  |--0-0-0-0-0-0-0-0-0-0-0-0-0-0|
d|--0-0-0-0-0-0-0-0-0-0-0-0|           |--2-2-2-2-2-2-2-4-4-4-4-4-4-4|
a|--3-3-3-3-3-3-3-3-3-3-3-3|           |--3-3-3-3-3-3-3-5-5-5-5-5-5-5|
e|--x-x-x-x-x-x-x-x-x-x-x-x|           |-----------------------------|

[CHORUS]
         "slowing down the metronome.."
e|--3-3-3-3-3-3-3-3-3-3-3-3-3-3-3-3|
b|--3-3-3-3-3-3-3-3-3-3-3-3-3-3-3-3|
g|--0-0-0-0-0-0-0-0-0-0-0-0-0-0-0-0|
d|--0-0-0-0-0-0-0-0-2-2-2-2-2-2-2-2|
a|--2-2-2-2-2-2-2-2-3-3-3-3-3-3-3-3|
e|--3-3-3-3-3-3-3-3-x-x-x-x-x-x-x-x|
Tap to rate this tab
 
# A B C D E F G H I J K L M N O P Q R S T U V W X Y Z