Song name
# A B C D E F G H I J K L M N O P Q R S T U V W X Y Z

Placebo - Peeping Tom Live tab

-------------------------------------------------------------------------------
          Peeping Tom (Live) - PLACEBO
-------------------------------------------------------------------------------
Tabbed by: Matteo
Email: matteo_dm@o2.pl
Comment: Tab for live version from Soulmates Never Die DVD - Live in Paris 2003

Tuning: eBGDAE (standard)
-------------------------------------------------------------------------------

Intro:

  (MAIN RIFF - CHECK OUT HOW TO PICK IT CORRECTLY ON DVD)

  This is my version:

e|------9--9-------9--9-------9--9-------9--9--|
B|------7--7-------7--7-------7--7-------7--7--|
G|---------------------------------------------|
D|---------------------------------------------|
A|--9-9--------9-9--------9-9--------9-9-------|
E|---------------------------------------------|

e|------6--6-------6--6-------6--6-------6--6--|
B|------6--6-------6--6-------6--6-------6--6--|
G|---------------------------------------------|
D|---------------------------------------------|
A|--8-8--------8-8--------8-8--------8-8-------|
E|---------------------------------------------|

  This is more accurate to original:

e|------------------------------------------------------------|
B|--------14--14---------14--14---------14-14---------14-14---|
G|------------------------------------------------------------|
D|--16-16----------16-16----------16-16---------16-16---------|
A|------------------------------------------------------------|
E|------------------------------------------------------------|

e|------------------------------------------------------------|
B|------------------------------------------------------------|
G|--------15--15---------15--15---------15-15---------15-15---|
D|--15-15----------15-15----------15-15---------15-15---------|
A|------------------------------------------------------------|
E|------------------------------------------------------------|

Verse:

I'm careful not to fall 
I have to climb your wall 
'Cause you're the one 
Who makes me feel much taller than you are
  (START PLAYING MAIN RIFF)
I'm just a peeping tom 
On my own for far too long 
Problems with the booze 
Nothing left to lose 

Chorus:

  (STRUM THIS CHORD 2 TIMES AND LET THEM RING - LISTEN FOR TIMING)

e|--------------------------|
B|--------------------------|
G|--------------------------|
D|-------16--------16-------|
A|-------16--------16-------|
E|-------14--------14-------|

I'm weightless... 

  (YOU CAN PLAY IT IN OTHER WAY, BUT THIS SOUNDS CORRECT)

e|---------------------------------------------------|
B|---------------------------------------------------|
G|--------20-20-------18-18-------16-16-------15-15--|
D|---------------------------------------------------|
A|--21-21-------20-20-------18-18-------16-16--------|
E|---------------------------------------------------|

I'm bare
I'm faithless... I'm scared 

Verse:

  (START PLAYING MAIN RIFF)
The face that fills the hole 
That stole my broken soul 
The one that makes me seem to feel much taller than you are 
I'm just a peeping tom 
On my own for far too long 
Troubles with the gear 
Nothing left to fear

Chorus:

  (SAME AS THE FIRST CHORUS)
I'm weightless... I'm bare 
I'm faithless... I'm scared 
I'm weightless... I'm bare 
I'm faithless... I'm scared 

Verse:

With every bet I lost 
And every trick I tossed 
You're still the one who makes me feel much taller than you are 
  (START PLAYING MAIN RIFF)
I'm just a peeping tom 
On my own for far too long 
Problems with the booze 
Nothing left to lose 

Chorus:

I'm weightless... I'm bare 
I'm faithless... I'm scared 
I'm weightless... I'm bare 
I'm faithless... I'm scared 
I'm weightless... I'm bare 
I'm faithless... I'm scared 

Outro:

  (USE TREMOLO EFFECT, OR PICK STRINGS GENTLY)

e|------------------|
B|------------------|
G|--------------18~-|
D|--20~---21~-------|
A|------------------|
E|------------------|

I'm scared 
I'm scared 
I'm scared 
I'm scared 
Tap to rate this tab
 
# A B C D E F G H I J K L M N O P Q R S T U V W X Y Z