Song name
# A B C D E F G H I J K L M N O P Q R S T U V W X Y Z

Placebo - Been Smoking Too Long tab

i hope you enjoy it ! comment please !

intro

E----------------------------------------------|
B---1--1--0--1--3--1--0--1--0----------------3-|
G---2--2--2--2--2--2--2--2--2----5--5--4--4--0-|
D---2--2--2--2--2--2--2--2--2----5--5--4--4--0-|
A--------------------------------3--3--2--2--2-|
E--------------------------------------------3-| x 2

verse

wake up in the morning.........

E------------------------|
B---1--1--1--1--1--0--1--|
G---2--2--2--0--0--0--0--|
D---2--2--2--2--2--2--2--|
A------------3--3--3--3--|
E------------------------| x 2 i think

tell me what have i done wrong?

E------|
B---3--|
G---0--|
D---0--|
A---2--|
E---3--| a few times then

not to go out with me must...

E------------------------------|
B---1--1--1--1--1--1--1--1--1--|
G---2--2--0--0--2--2--0--0--2--|
D---2--2--2--2--2--2--2--2--2--|
A---------3--3--------3--3-----|
E------------------------------|

E-----------------------------------------|
B---1--1--0--1--3--1--0--1--0-----------1-|
G---2--2--2--2--2--2--2--2--2--5--5--4--0-|
D---2--2--2--2--2--2--2--2--2--5--5--4--0-|
A------------------------------3--3--2--2-|
E---------------------------------------3-| x 2
Tap to rate this tab
# A B C D E F G H I J K L M N O P Q R S T U V W X Y Z