Song name
# A B C D E F G H I J K L M N O P Q R S T U V W X Y Z

Placebo - Infra-red tab

-------------------------------------------------------------------------------
			     Infra-Red - Placebo
-------------------------------------------------------------------------------
Tabbed by: Josh Bach
Email:enjoy-josh@hotmail.com

Tuning:Standard

Intro & Verse(main riff)

e|-------4----6--7-----------------------------------------------------------|
B|--7--4---4----4--4---------------------------------------------------------|
G|---------------------------------------------------------------------------|
D|---------------------------------------------------------------------------|
A|---------------------------------------------------------------------------|
E|---------------------------------------------------------------------------|

Pre Chorus
e|--222b22222222222222222222222----------------------------------------------|
B|--22b222222222222222222222222----------------------------------------------|
G|---------------------------------------------------------------------------|
D|---------------------------------------------------------------------------|
A|---------------------------------------------------------------------------|
E|---------------------------------------------------------------------------|

Chorus
e|---------------------------------------------------------------------------|
B|---------------------------------------------------------------------------|
G|-11----------9------------------------------------------------------------ |
D|-11 (X 16)---9 (X 16)---9--------------------------------------------------|
A|-9-----------7----------9 (X 36)-------------------------------------------|
E|------------------------7--------------------------------------------------|

Then
e|--------------------------------------------------------------------------|
B|--------------------------------------------------------------------------|
G|-11----------9-----------8------------------------------------------------|
D|-11 (X 16)---9 (X 16)----8------------------------------------------------|
A|-9-----------7-----------6 (X 36)-----------------------------------------|
E|--------------------------------------------------------------------------|

Verse
e|-------4----6--7-----------------------------------------------------------|
B|--7--4---4----4--4---------------------------------------------------------|
G|---------------------------------------------------------------------------|
D|---------------------------------------------------------------------------|
A|---------------------------------------------------------------------------|
E|---------------------------------------------------------------------------|

Pre Chorus
e|--222b22222222222222222222222----------------------------------------------|
B|--22b222222222222222222222222----------------------------------------------|
G|---------------------------------------------------------------------------|
D|---------------------------------------------------------------------------|
A|---------------------------------------------------------------------------|
E|---------------------------------------------------------------------------|

Chorus
e|---------------------------------------------------------------------------|
B|---------------------------------------------------------------------------|
G|-11----------9------------------------------------------------------------ |
D|-11 (X 16)---9 (X 16)---9--------------------------------------------------|
A|-9-----------7----------9 (X 36)-------------------------------------------|
E|------------------------7--------------------------------------------------|

Then
e|--------------------------------------------------------------------------|
B|--------------------------------------------------------------------------|
G|-11----------9-----------8------------------------------------------------|
D|-11 (X 16)---9 (X 16)----8------------------------------------------------|
A|-9-----------7-----------6 (X 36)-----------------------------------------|
E|--------------------------------------------------------------------------|



Bridge (X 6)
e|----6--7-6----6--7-6-------------------------------------------------------|
B|-4---------4---------------------------------------------------------------|
G|---------------------------------------------------------------------------|
D|---------------------------------------------------------------------------|
A|---------------------------------------------------------------------------|
E|---------------------------------------------------------------------------|

Chorus/ Outro
e|---------------------------------------------------------------------------|
B|---------------------------------------------------------------------------|
G|-11----------9------------------------------------------------------------ |
D|-11 (X 16)---9 (X 16)---9--------------------------------------------------|
A|-9-----------7----------9 (X 36)-------------------------------------------|
E|------------------------7--------------------------------------------------|

Then
e|--------------------------------------------------------------------------|
B|--------------------------------------------------------------------------|
G|-11----------9-----------8------------------------------------------------|
D|-11 (X 16)---9 (X 16)----8------------------------------------------------|
A|-9-----------7-----------6 (X 36)-----------------------------------------|
E|--------------------------------------------------------------------------|


| /  slide up
| \  slide down
| h  hammer-on
| p  pull-off
| ~  vibrato
| +  harmonic
| x  Mute note
===============================================================================
Tap to rate this tab
# A B C D E F G H I J K L M N O P Q R S T U V W X Y Z