Song name
# A B C D E F G H I J K L M N O P Q R S T U V W X Y Z

Placebo - Julien chords

Placebo
9. Julien
Battle For The Sun
2009

Tuning: D A D G B E (Drop D)

Intro: (0:43)
|-----------------------------------------------------------------------|
|-----------------------------------------------------------------------|
|-----------------------------------------------------------------------|
|----6---6----------------------------------------5-5-5-5-5-------------|x3
|--7~--7---7-7-7-7-7-7-/9-9-9-9-4-6~6---6---6~--6-----------------------|
|-------------------------------------6~--6~--6-------------------------|

|-----------------------------------------------------------------------|
|-----------------------------------------------------------------------|
|-----------------------------------------------------------------------|
|----6---6--------------------------------------------------------------|x1
|--7~--7---7-7-7-7-7-7-/9-9-9-9-4-6~6---6---6~--------------------------|
|-------------------------------------6~--6~----------------------------|

Verse: (1:16)
|-----------------------------------------------------------------------|
|-----------------------------------------------------------------------|
|-----------------------------------------------------------------------|
|-4/6-6-6-6-6-6-6-6-6-6-6-6-6-6-6-6-1-1-1-1-1-1-1-1-6-6-6-6-6-6-6-------|x3
|-4/6-6-6-6-6-6-6-6-6-6-6-6-6-6-6-6-1-1-1-1-1-1-1-1-6-6-6-6-6-6-6-------|
|-4/6-6-6-6-6-6-6-6-6-6-6-6-6-6-6-6-1-1-1-1-1-1-1-1-6-6-6-6-6-6-6-------|

|-----------------------------------------------------------------------|
|-----------------------------------------------------------------------|
|-----------------------------------------------------------------------|
|-4/6-6-6-6-6-6-6-6-6-6-6-6-6-6-6-6-1-1-1-1-1-1-1-1-6-6-6-6-6-6-4-4-----|x1
|-4/6-6-6-6-6-6-6-6-6-6-6-6-6-6-6-6-1-1-1-1-1-1-1-1-6-6-6-6-6-6-4-4-----|
|-4/6-6-6-6-6-6-6-6-6-6-6-6-6-6-6-6-1-1-1-1-1-1-1-1-6-6-6-6-6-6-4-4-----|

Chorus: (1:50)
|-----------------------------------------------------------------------|
|-----------------------------------------------------------------------|
|-----------------------------------------------------------------------|
|-2-2-2-2-2-2-2-2-2-2-2-2-2-2-2-2-6-6-6-6-6-6-6-6-6-6-6-6-6-6-4-4-------|x3
|-2-2-2-2-2-2-2-2-2-2-2-2-2-2-2-2-6-6-6-6-6-6-6-6-6-6-6-6-6-6-4-4-------|
|-2-2-2-2-2-2-2-2-2-2-2-2-2-2-2-2-6-6-6-6-6-6-6-6-6-6-6-6-6-6-4-4-------|

|-----------------------------------------------------------------------|
|-----------------------------------------------------------------------|
|-----------------------------------------------------------------------|
|-2-2-2-2-2-2-2-2-2-2-2-2-2-2-2-2-1-1-1-1-1-1-1-1-1-1-1-1-1-1-1-1-------|x1
|-2-2-2-2-2-2-2-2-2-2-2-2-2-2-2-2-1-1-1-1-1-1-1-1-1-1-1-1-1-1-1-1-------|
|-2-2-2-2-2-2-2-2-2-2-2-2-2-2-2-2-1-1-1-1-1-1-1-1-1-1-1-1-1-1-1-1-------|

Bridge: (2:23)
|-----------------------------------------------------------------------|
|-----------------------------------------------------------------------|
|-----------------------------------------------------------------------|
|-----------------------------------------------------------------------|
|-6-6-6-6-6-6-6-6-5-5-5-9-9-9-9-9--1-----1-----1-----1-----1---1--------|
|------------------------------------1-1---1-1---1-1---1-1---1---1------|

|-----------------------------------------------------------------------|
|-----------------------------------------------------------------------|
|-----------------------------------------------------------------------|
|-----------------------------------------------------------------------|
|-6-6-6-6-6-6-6-6-5-5-5-9-9-9-9-9--1-----1-----1-----1------1br---------|
|------------------------------------1-1---1-1---1-1---1-1--------------|

|-----------------------------------------------------------------------|
|-----------------------------------------------------------------------|
|-----------------------------------------------------------------------|
|-----------------------------------------------------------------------|
|-6-6-6-6-6-6-6-6-5-5-5-9-9-9-9-9--1-----1-----1-----1-----1---1--------|
|------------------------------------1-1---1-1---1-1---1-1---1---1------|

|-----------------------------------|
|-----------------------------------|
|-----------------------------------|
|-----------------------------------|
|-6-6-6-6-6-6-6-6-5-5-5-9-9-9-9-9---|
|-----------------------------------|

|-------------------------------------------------|
|-------------------------------------------------|
|-12-12-12-12-12-12-12-12-13-13-13-15-15-15-15-15-|
|-x--x--x--x--x--x--x--x--x--x--x--x--x--x--x--x--|
|-10-10-10-10-10-10-10-10-11-11-11-13-13-13-13-13-|
|-------------------------------------------------|

|-------------------------------------------------|
|-------------------------------------------------|
|-12-12-12-13-13-13-15-15-15-16-16-16-18-18-20-20-|
|-x--x--x--x--x--x--x--x--x--x--x--x--x--x--x--x--|
|-10-10-10-11-11-11-13-13-13-14-14-14-16-16-18-18-|
|-------------------------------------------------|

Chorus: (3:01)
|-----------------------------------------------------------------------|
|-----------------------------------------------------------------------|
|-----------------------------------------------------------------------|
|-2-2-2-2-2-2-2-2-2-2-2-2-2-2-2-2-6-6-6-6-6-6-6-6-6-6-6-6-6-6-4-4-------|x4
|-2-2-2-2-2-2-2-2-2-2-2-2-2-2-2-2-6-6-6-6-6-6-6-6-6-6-6-6-6-6-4-4-------|
|-2-2-2-2-2-2-2-2-2-2-2-2-2-2-2-2-6-6-6-6-6-6-6-6-6-6-6-6-6-6-4-4-------|

Slowmotion Suicide: (3:34)
|-----------------------------------------------------------------------|
|-----------------------------------------------------------------------|
|-----------------------------------------------------------------------|
|-2-2-2-2-2-2-2-2-2-2-2-2-2-2-2-2-6-6-6-6-6-6-6-6-6-6-6-6-6-6-4-4-------|x4
|-2-2-2-2-2-2-2-2-2-2-2-2-2-2-2-2-6-6-6-6-6-6-6-6-6-6-6-6-6-6-4-4-------|
|-2-2-2-2-2-2-2-2-2-2-2-2-2-2-2-2-6-6-6-6-6-6-6-6-6-6-6-6-6-6-4-4-------|

Outro: (4:08)
|-------------------|
|-------------------|
|-------------------|
|-6~---6~---6~---6~-|
|-6~---6~---6~---6~-|
|-6~---6~---6~---6~-|
Tap to rate this tab
# A B C D E F G H I J K L M N O P Q R S T U V W X Y Z