Song name
# A B C D E F G H I J K L M N O P Q R S T U V W X Y Z

Placebo - For What Its Worth tab

Band - Placebo
Song - For What It's Worth
Album - Battle for the Sun
Guitar - Brian Molko
Tuning - Drop D
Tabbed by - Khalamity

Format :

Verse x5
Pre-Chorus x1
Chorus x1
Verse x4
Pre-Chorus x1
Chorus x2
Interlude(No Guitar)
Bridge x1
Chorus x1
Outro x1

Legend :

* = Palm-mute


Verse
E|-----------------------------------------------------|
B|-----------------------------------------------------|
G|-----------------------------------------------------|
D|-----------------------------------------------------|
A|-2222222222222000----2222222222200000----------------|
D|-----------------------------------------------------|

Pre-Chorus
E|-----------------------------------------------------|
B|-----------------------------------------------------|
G|-----------------------------------------------------|
D|-----------------------------------------------------|
A|-2222222222222000-2----------------------------------|
D|-----------------------------------------------------|

Chorus
E|-----------------------------------------------------|
B|-----------------------------------------------------|
G|-----------------------------------------------------|
D|-44444444-44444444-22222222-44444444-----------------|
A|-44444444-44444444-22222222-44444444-----------------|
D|-44444444-44444444-22222222-44444444-----------------|

Bridge
E|-----------------------------------------------------|
B|-----------------------------------------------------|
G|-----------------------------------------------------|
D|-----------------------------------------------------|
A|-2222222222222000-2222222222222555-------------------|
D|-----------------------------------------------------|
   **************** ****************

E|-----------------------------------------------------|
B|-----------------------------------------------------|
G|-----------------------------------------------------|
D|-----------------------------------------------------|
A|-0000000000000000-2222222222222222-------------------|
D|-----------------------------------------------------|
   **************** ************ (Slowly Lift Palm-mute)

E|-----------------------------------------------------|
B|-----------------------------------------------------|
G|-----------------------------------------------------|
D|-----------------------------------------------------|
A|-2222222222222000-2222222222222555-------------------|
D|-----------------------------------------------------|

E|-----------------------------------------------------|
B|-----------------------------------------------------|
G|-----------------------------------------------------|
D|-----------------------------------------------------|
A|-0000000000000000-222222222222-----------------------|
D|-----------------------------------------------------|

Outro
E|-----------------------------------------------------|
B|-----------------------------------------------------|
G|-----------------------------------------------------|
D|-44444444-44444444-22222222-4------------------------|
A|-44444444-44444444-22222222-4------------------------|
D|-44444444-44444444-22222222-4------------------------|
Tap to rate this tab
# A B C D E F G H I J K L M N O P Q R S T U V W X Y Z