Song name
# A B C D E F G H I J K L M N O P Q R S T U V W X Y Z

Placebo - In A Funk tab

-------------------------------------------------------------------------------
			     IN A FUNK - Placebo
-------------------------------------------------------------------------------
Tabbed by: Gustavo Collado


Tuning: F A# D# G# C C 
(Or you can just put a capo on the first fret)

Intro
C |--------------------------|
C |--------------------------|
G#|--------------------------| X2
D#|--------------------------|
A#|----4-4-4-4----4-4-4-4----|
F |-2r---------0r---------2r-|


Verse 1
(Call me anticipation, call me out of line...)
C |--------------------------|
C |--------------------------|
G#|--------------------------| X4
D#|--------------------------|
A#|----4-4-4-4----4-4-4-4----|
F |-2r---------0r---------2r-|


Chorus 1
(Heavens know, if you promise not to go...)
C |-----------------------------------|
C |-----------------------------------|
G#|------------------1313131313131313-| X2
D#|-1111111111111111-x-x-x-x-x-x-x-x--|
A#|-x-x-x-x-x-x-x-x--1111111111111111-|
F |-9-9-9-9-9-9-9-9-------------------|

C |-------------------------------------|
C |----------------------------21212121-|
G#|-18181818/13131313/20202020/x-x-x-x--|
D#|-x-x-x-x-x-x-x-x-x-x-x-x-x--18181818-|
A#|-16161616/11111111/18181818/---------|
F |-------------------------------------|


Verse 2
(Call me animation, call me asinine...)
C |--------------------------|
C |--------------------------|
G#|--------------------------| X4
D#|--------------------------|
A#|----4-4-4-4----4-4-4-4----|
F |-2r---------0r---------2r-|

Chorus 2
(Heavens know, if you promise not to go...)
C |-----------------------------------|
C |-----------------------------------|
G#|------------------1313131313131313-| X4
D#|-1111111111111111-x-x-x-x-x-x-x-x--|
A#|-x-x-x-x-x-x-x-x--1111111111111111-|
F |-9-9-9-9-9-9-9-9-------------------|

C |-------------------------------------|
C |----------------------------21212121-|
G#|-18181818/13131313/20202020/x-x-x-x--| X4
D#|-x-x-x-x-x-x-x-x-x-x-x-x-x--18181818-|
A#|-16161616/11111111/18181818/---------|
F |-------------------------------------|


Verse 3
(Is it my imagination? Is it the end of the line?...)

[No guitar]


Chorus 3
(God only knows, if you promise not to go...)
C |-----------------------------------|
C |-----------------------------------|
G#|------------------1313131313131313-| X4
D#|-1111111111111111-x-x-x-x-x-x-x-x--|
A#|-x-x-x-x-x-x-x-x--1111111111111111-|
F |-9-9-9-9-9-9-9-9-------------------|

C |-------------------------------------|
C |----------------------------21212121-|
G#|-18181818/13131313/20202020/x-x-x-x--| X4
D#|-x-x-x-x-x-x-x-x-x-x-x-x-x--18181818-|
A#|-16161616/11111111/18181818/---------|
F |-------------------------------------|

C |-----|
C |-----|
G#|-----|
D#|-11r-|
A#|-x---|
F |-9r--|
Tap to rate this tab
# A B C D E F G H I J K L M N O P Q R S T U V W X Y Z