Song name
# A B C D E F G H I J K L M N O P Q R S T U V W X Y Z

Placebo - In A Funk tab

-------------------------------------------------------------------------------
			     IN A FUNK - Placebo
-------------------------------------------------------------------------------
Tabbed by: Gustavo Collado


Tuning: EADGBe

I submitted a tab for this very song using Placebo's standard tuning
(FA#D#G#CC)which I prefer, mostly because of all the feedback noise needed
 and the natural harmonics used (at random?) during the song. But you can
 also play it using standard tuning,although it may sound slightly off;
 anyway here's another version.


Intro
e|--------------------------|
B|--------------------------|
G|--------------------------| X2
D|--------------------------|
A|----5-5-5-5----5-5-5-5----|
E|-3r---------1r---------3r-|


Verse 1
(Call me anticipation, call me out of line...)
e|--------------------------|
B|--------------------------|
G|--------------------------| X4
D|--------------------------|
A|----5-5-5-5----5-5-5-5----|
E|-3r---------1r---------3r-|


Chorus 1
(Heavens know, if you promise not to go...)
e|-----------------------------------|
B|-----------------------------------|
G|------------------1414141414141414-| X2
D|-1212121212121212-x-x-x-x-x-x-x-x--|
A|-x-x-x-x-x-x-x-x--1212121212121212-|
E|-1010101010101010------------------|

e|-------------------------------------|
B|----------------------------22222222-|
G|-19191919/14141414/21212121/x-x-x-x--|
D|-x-x-x-x-x-x-x-x-x-x-x-x-x--19191919-|
A|-17171717/12121212/19191919/---------|
E|-------------------------------------|


Verse 2
(Call me animation, call me asinine...)
e|--------------------------|
B|--------------------------|
G|--------------------------| X4
D|--------------------------|
A|----5-5-5-5----5-5-5-5----|
E|-3r---------1r---------3r-|

Chorus 2
(Heavens know, if you promise not to go...)
e|-----------------------------------|
B|-----------------------------------|
G|------------------1414141414141414-| X4
D|-1212121212121212-x-x-x-x-x-x-x-x--|
A|-x-x-x-x-x-x-x-x--1212121212121212-|
E|-1010101010101010------------------|

e|-------------------------------------|
B|----------------------------22222222-|
G|-19191919/14141414/21212121/x-x-x-x--| X4
D|-x-x-x-x-x-x-x-x-x-x-x-x-x--19191919-|
A|-17171717/12121212/19191919/---------|
E|-------------------------------------|


Verse 3
(Is it my imagination? Is it the end of the line?...)

[No guitar]


Chorus 3
(God only knows, if you promise not to go...)
e|-----------------------------------|
B|-----------------------------------|
G|------------------1414141414141414-| X4
D|-1212121212121212-x-x-x-x-x-x-x-x--|
A|-x-x-x-x-x-x-x-x--1212121212121212-|
E|-1010101010101010------------------|

e|-------------------------------------|
B|----------------------------22222222-|
G|-19191919/14141414/21212121/x-x-x-x--| X4
D|-x-x-x-x-x-x-x-x-x-x-x-x-x--19191919-|
A|-17171717/12121212/19191919/---------|
E|-------------------------------------|

e|-----|
B|-----|
G|-----|
D|-12r-|
A|-x---|
E|-10r-|
Tap to rate this tab
# A B C D E F G H I J K L M N O P Q R S T U V W X Y Z