Song name
# A B C D E F G H I J K L M N O P Q R S T U V W X Y Z

Placebo - Fuck U tab

-------------------------------------------------------------------------------
			     FUCK U - Placebo
-------------------------------------------------------------------------------
Tabbed by: Gustavo Collado


Tuning: EADGBe

Intro

e|-------------------------|
B|-----1-----1-----3-----3-|
G|-----2-----2-----4-----4-| X2
D|-------------------------|
A|-0-0---0-0---0-0---0-0---|
E|-------------------------|


Verse 1
(There's a look on your face I would like to knock out...)

e|-------------------------|
B|-----1-----1-----3-----3-|
G|-----2-----2-----4-----4-| X4
D|-------------------------|
A|-0-0---0-0---0-0---0-0---|
E|-------------------------|

e|-------------------------|
B|-----1-----1-----3-----3-|
G|-----2-----2-----4-----4-| X4
D|-------------------------|
A|-------------------------|
E|-1-1---1-1---1-1---1-1---|

e|-------------------------|
B|-----1-----1-----3-----3-|
G|-----2-----2-----4-----4-| X4
D|-------------------------|
A|-0-0---0-0---0-0---0-0---|
E|-------------------------|

e|-------------------------|
B|-----1-----1-----3-----3-|
G|-----2-----2-----4-----4-| X4
D|-------------------------|
A|-------------------------|
E|-1-1---1-1---1-1---1-1---|


Chorus 1
(So fuck you anyway...)

e|-------------------------|
B|-------------------------|
G|-------------------------|X2
D|-333333/2222/777777/(5)/-|
A|-333333/2222/777777/(5)/-|
E|-111111/0000/555555/(3)/-|

e|-------------------|
B|-------------------|
G|-------------------|
D|-33333333/22222222-|
A|-33333333/22222222-|
E|-11111111/00000000-|

e|-------------------------|
B|-----1-----1-----3-----3-|
G|-----2-----2-----4-----4-| X2
D|-------------------------|
A|-0-0---0-0---0-0---0-0---|
E|-------------------------|


Verse 2
(Bet you sleep like a child with your thumb in your mouth...)

e|-------------------------|
B|-----1-----1-----3-----3-|
G|-----2-----2-----4-----4-| X4
D|-------------------------|
A|-0-0---0-0---0-0---0-0---|
E|-------------------------|

e|-------------------------|
B|-----1-----1-----3-----3-|
G|-----2-----2-----4-----4-| X4
D|-------------------------|
A|-------------------------|
E|-1-1---1-1---1-1---1-1---|


Chorus 2
(Why the fuck, why the fuck are you looking at me?...)

e|-------------------------|
B|-------------------------|
G|-------------------------|X2
D|-333333/2222/777777/(5)/-|
A|-333333/2222/777777/(5)/-|
E|-111111/0000/555555/(3)/-|

e|-------------------|
B|-------------------|
G|-------------------|
D|-33333333/22222222-|
A|-33333333/22222222-|
E|-11111111/00000000-|

e|---------|
B|--88--9*-|
G|--99--9*-|X2
D|-(xx)-9*-|
A|-(77)-9*-|
E|---------|
*natural harmonics 


Verse 3
(There's a time for us all and I think yours has been...)

e|-------------------------|
B|-------------------------|
G|-------------------------|X4
D|-333333/2222/777777/(5)/-|
A|-333333/2222/777777/(5)/-|
E|-111111/0000/555555/(3)/-|


Chorus 3 /Outro
(So fuck you anyway...)

e|-------------------------|
B|-----1-----1-----3-----3-|
G|-----2-----2-----4-----4-| X4
D|-------------------------|
A|-0-0---0-0---0-0---0-0---|
E|-------------------------|

e|----|
B|-1r-|
G|-2r-|
D|-2r-|
A|-0r-|
E|----|
Tap to rate this tab
 
# A B C D E F G H I J K L M N O P Q R S T U V W X Y Z