Song name
# A B C D E F G H I J K L M N O P Q R S T U V W X Y Z

Placebo - Pure Morning tab

Help us improve GuitareTab! Take a short survey!
----------------------------------------------------------------------------
			     PURE MORNING - Placebo
----------------------------------------------------------------------------
Tabbed by: Jesse Benedick
Email: JBMetal311@yahoo.com

Tuning: Standard

e|---------------------|---------------------------|-----------------------|
B|---------------------|-------8---8-8-------------|-----------------------|
G|---------------------|-----8---------8---5-5-----|-----------------------|
D|---------------------|---8-----8-------8-----6~--|-------------------5-7~|
A|-6~---6~---6~---6~---|---------------------------|----6-6--6---6---6-----|
E|---------------------|---------------------------|--6--------6---6-------|

e|----------------------------|--------------------------------------------|
B|----------------------------|--------------------------------------------|
G|----------------------------|--------------------------------------------|
D|----------------------------|--------------------------------------------|
A|----6-6--6---6---6--3-3-4~--|--------------------------------------------|
E|--6--------6---6------------|--------------------------------------------|

That's it. The whole tab. Cheers!

| /  slide up
| \  slide down
| h  hammer-on
| p  pull-off
| ~  vibrato
| +  harmonic
| x  Mute note
============================================================================
Related for Pure Morning tab