Song name
# A B C D E F G H I J K L M N O P Q R S T U V W X Y Z

Placebo - Nancy Boy tab

-------------------------------------------------------------------------------
			     Nancy Boy - Placebo
-------------------------------------------------------------------------------
Tabbed by: BibiBear
Email:

Tuning: Standard

Well I read others tab for this song, then I watched Brian playing it on live
and this is a tab I think is very close to the real one (if there is a real one
of course). Sorry for my english though, i'm french ^^


Intro

e|---------------------------------------------------------------------------|
B|---------------------------------------------------------------------------|
G|---------------------------------------------------------------------------|
D|---------------------------------------------------------------------------|
A|-----------------7-7-7-7-----------------7-7-7-7-7-7-7-7-------------------|
E|-0-0-0-0-0-0-0-0---------0-0-0-0-0-0-0-0-----------------0---0---0---0-----|

e|---------------------------------------------------------------------------|
B|---------------------------------------------------------------------------|
G|---------------------------------------------------------------------------|
D|-6-6-6-6-6-6-6-6-6-6-6-6-6-6-6-6-6-6-6-6-6-6-6-6-6-6-6-6-6-6-6-6-6-6-6-6-6-|
A|-7-7-7-7-7-7-7-7-7-7-7-7-7-7-7-7-7-7-7-7-7-7-7-7-7-7-7-7-7-7-7-7-7-7-7-7-7-|
E|-0-0-0-0-0-0-0-0-0-0-0-0-0-0-0-0-0-0-0-0-0-0-0-0-0-0-0-0-0-0-0-0-0-0-0-0-0-|


Verses (repeat twice for each verse)

     "Alcoholic 		kind  		of 		mood"
e|---------------------------------------------------------------------------|
B|---------------------------------------------------------------------------|
G|---------------------------------------------------------------------------|
D|-6-6-6-6-6-6-6-6-6-6-6-6-6-6-6-6-6-6-6-6-6-6-6-6-6-6-6-6-6-6-6-6-6-6-6-6-6-|
A|-7-7-7-7-7-7-7-7-7-7-7-7-7-7-7-7-7-7-7-7-7-7-7-7-7-7-7-7-7-7-7-7-7-7-7-7-7-|
E|-0-0-0-0-0-0-0-0-0-0-0-0-0-0-0-0-0-0-0-0-0-0-0-0-0-0-0-0-0-0-0-0-0-0-0-0-0-|
 
    "Lose 	my 	clothes		Lose 	my 		lube"
e|---------------------------------------------------------------------------|
B|---------------------------------------------------------------------------|
G|---------------------------------------------------------------------------|
D|-6-6-6-6-6-6-6-6-6-6-6-6-6-6-6-6-6-6-6-6-6-6-6-6-6-6-6-6-6-6-6-6-6-6-6-6-6-|
A|-7-7-7-7-7-7-7-7-7-7-7-7-7-7-7-7-7-7-7-7-7-7-7-7-7-7-7-7-7-7-7-7-7-7-7-7-7-|
E|-0-0-0-0-0-0-0-0-0-0-0-0-0-0-0-0-0-0-0-0-0-0-0-0-0-0-0-0-0-0-0-0-0-0-0-0-0-|

    "Cruising 	for 	a	 	piece 	of	 	fun"
e|---------------------------------------------------------------------------|
B|---------------------------------------------------------------------------|
G|---------------------------------------------------------------------------|
D|-7-7-7-7-7-7-7-7-7-7-7-7-7-7-7-7-7-7-7-7-7-7-7-7-7-7-7-7-7-7-7-7-7-7-7-7-7-|
A|-7-7-7-7-7-7-7-7-7-7-7-7-7-7-7-7-7-7-7-7-7-7-7-7-7-7-7-7-7-7-7-7-7-7-7-7-7-|
E|-5-5-5-5-5-5-5-5-5-5-5-5-5-5-5-5-5-5-5-5-5-5-5-5-5-5-5-5-5-5-5-5-5-5-5-5-5-|

    "Looking	 	out 		for 	number 		one"
e|---------------------------------------------------------------------------|
B|---------------------------------------------------------------------------|
G|---------------------------------------------------------------------------|
D|-7-7-7-7-7-7-7-7-7-7-7-7-7-7-7-7-7-7-7-7-7-7-7-7-7-7-7-7-7-7-7-7-7-7-7-7-7-|
A|-7-7-7-7-7-7-7-7-7-7-7-7-7-7-7-7-7-7-7-7-7-7-7-7-7-7-7-7-7-7-7-7-7-7-7-7-7-|
E|-5-5-5-5-5-5-5-5-5-5-5-5-5-5-5-5-5-5-5-5-5-5-5-5-5-5-5-5-5-5-5-5-5-5-5-5-5-|



Chorus
"And it  all breaks down...				     got the
e|---------------------------------------------------------------------------|
B|---------------------------------------------------------------------------|
G|-------9--9--9--9--9--9--9--9--9--9--9--9--9--9--9--9--9-------------------|
D|-7-7---9--9--9--9--9--9--9--9--9--9--9--9--9--9--9--9--9----0--0-----------|
A|-7-7---7--7--7--7--7--7--7--7--7--7--7--7--7--7--7--7--7----0--0-----------|
E|-5-5---0--0--0--0--0--0--0--0--0--0--0--0--0--0--0--0--0----0--0-----------|

  muse in my head she's universal,  spining me round,she's coming over me -
e|---------------------------------------------------- ----------------------|
B|---------------------------------------------------------------------------|
G|---------------------------------------------------------------------------|
D|-9-9-9-9-9-9-9-9-9-9-9-9-9-9-9-9---8-8-8-8-8-8-8-8-8-8-8-8-8-8-8-8---------|
A|-9-9-9-9-9-9-9-9-9-9-9-9-9-9-9-9---8-8-8-8-8-8-8-8-8-8-8-8-8-8-8-8---------|
E|-7-7-7-7-7-7-7-7-7-7-7-7-7-7-7-7---6-6-6-6-6-6-6-6-6-6-6-6-6-6-6-6---------|

   -         ee                  And it  all breaks down..
e|---------------------------------------------- ... ------------------------|
B|---------------------------------------------- ... ------------------------|
G|----------------------------------------9-9--- ... repeat from top---------|
D|-7-7-7-7-7-7-7-7-7-7-7-7-7-7----0--0----9-9--- ... ------------------------|
A|-7-7-7-7-7-7-7-7-7-7-7-7-7-7----0--0----7-7--- ... ------------------------|
E|-5-5-5-5-5-5-5-5-5-5-5-5-5-5----0--0----0-0--- ... ------------------------|


Bridge

e|-12-12-12-12-12-12-12-12-12-12-12-12-12-12-12-12-12-12-12-12-12------------|
B|-12-12-12-12-12-12-12-12-12-12-12-12-12-12-12-12-12-12-12-12-12------------|
G|-11-11-11-11-11-11-11-11-11-11-11-11-11-11-11-11-11-11-11-11-11------------|
D|-11-11-11-11-11-11-11-11-11-11-11-11-11-11-11-11-11-11-11-11-11------------|
A|---------------------------------------------------------------------------|
E|---------------------------------------------------------------------------|


End of last chorus
   -         ee                  
e|--------------------------------------------|
B|--------------------------------------------|
G|-----------------------------------------9--|
D|-7-7-7-7-7-7-7-7-7-7-7-7-7-7----------0--9--|
A|-7-7-7-7-7-7-7-7-7-7-7-7-7-7---- -----0--7--|
E|-5-5-5-5-5-5-5-5-5-5-5-5-5-5--/-12-\--0--0--|



Play in order :

Intro

Verse 1
Chorus

Verse 2
Chorus

Verse 3  -- for this verse, normaly this is bass only, but you can play just
	 -- the first two verses
Chorus

Bridge

Chorus


Sounds pretty good to me =)

Enjoy !

| /  slide up
| \  slide down
| h  hammer-on
| p  pull-off
| ~  vibrato
| +  harmonic
| x  Mute note
===============================================================================
Tap to rate this tab
# A B C D E F G H I J K L M N O P Q R S T U V W X Y Z