Song name
# A B C D E F G H I J K L M N O P Q R S T U V W X Y Z

Placebo - The Bitter End tab

This song is played with two guitars so this tab version is a kind of mixture which you
can play with one guitar but it sounds GREAT! Distortion is put on at Outro.And listen to the song to get the rhythm right.

D means Down
U means Up


Intro

e------------------------------------------
b------------------------------------------
g---8-8--8-8--8-8--8-8--8-8--8-8--8-8--8-8-
d---8-8--8-8--8-8--8-8--8-8--8-8--8-8--8-8-
a---6-6--6-6--6-6--6-6--6-6--6-6--6-6--6-6-
e------------------------------------------

Verse

e----------------------------------------------------------------------------------------
b----------------------------------------------------------------------------------------
g--8-8--8-8--8-8--8-8--------------------------------------------------------------------
d--8-8--8-8--8-8--8-8--------------------------------------------------------------------
a--6-6--6-6--6-6--6-6---4-4-4-4-4-4-4-4-2-2-2-2-2-2-2-2-1-1-1-1-1-1-1-1------------------
e----------------------------------------------------------------------4-4-4-4-4-4-4-4-4-

e----------------------------------------------------------------------------------------
b----------------------------------------------------------------------------------------
g--8-8--8-8--8-8--8-8--------------------------------------------------------------------
d--8-8--8-8--8-8--8-8--------------------------------------------------------------------
a--6-6--6-6--6-6--6-6---4-4-4-4-4-4-4-4-2-2-2-2-2-2-2-2-1-1-1-1-1-1-1-1------------------
e----------------------------------------------------------------------4-4-4-4-4-4-4-4-4-

e----------------------------------------------------------------------------------------
b----------------------------------------------------------------------------------------
g--8-8--8-8--8-8--8-8--------------------------------------------------------------------
d--8-8--8-8--8-8--8-8--------------------------------------------------------------------
a--6-6--6-6--6-6--6-6---4-4-4-4-4-4-4-4-2-2-2-2-2-2-2-2-1-1-1-1-1-1-1-1------------------
e----------------------------------------------------------------------4-4-4-4-4-4-4-4-4-

e----------------------------------------------------------------------------------------
b----------------------------------------------------------------------------------------
g--8-8--8-8--8-8--8-8--------------------------------------------------------------------
d--8-8--8-8--8-8--8-8----------------------------------4-4-4-4-4-4-4-4-3-3-3-3-3-3-3-3---
a--6-6--6-6--6-6--6-6---4-4-4-4-4-4-4-4-2-2-2-2-2-2-2-2----------------------------------
e----------------------------------------------------------------------------------------

Chorus

e----------------------------------------------------------------------------------------
b------7--9--11--------------------------------------------------------------------------
g---8-----------8------------------------------------------------------------------------
d----------------------------------------------------------------------------------------
a--6--6--6--6------4-4-4-4-4-4-4-4-2-2-2-2-2-2-2-2-1-1-1-1-1-1-1-1-----------------------
e------------------------------------------------------------------4-4-4-4-4-4-4-4-4-----

e----------------------------------------------------------------------------------------
b------7--9--11--------------------------------------------------------------------------
g---8-----------8------------------------------------------------------------------------
d----------------------------------------------------------------------------------------
a--6--6--6--6------4-4-4-4-4-4-4-4-2-2-2-2-2-2-2-2-1-1-1-1-1-1-1-1-----------------------
e------------------------------------------------------------------4-4-4-4-4-4-4-4-4-----

Verse

e----------------------------------------------------------------------------------------
b----------------------------------------------------------------------------------------
g--8-8--8-8--8-8--8-8--------------------------------------------------------------------
d--8-8--8-8--8-8--8-8--------------------------------------------------------------------
a--6-6--6-6--6-6--6-6---4-4-4-4-4-4-4-4-2-2-2-2-2-2-2-2-1-1-1-1-1-1-1-1------------------
e----------------------------------------------------------------------4-4-4-4-4-4-4-4-4-

e----------------------------------------------------------------------------------------
b----------------------------------------------------------------------------------------
g--8-8--8-8--8-8--8-8--------------------------------------------------------------------
d--8-8--8-8--8-8--8-8--------------------------------------------------------------------
a--6-6--6-6--6-6--6-6---4-4-4-4-4-4-4-4-2-2-2-2-2-2-2-2-1-1-1-1-1-1-1-1------------------
e----------------------------------------------------------------------4-4-4-4-4-4-4-4-4-

e----------------------------------------------------------------------------------------
b----------------------------------------------------------------------------------------
g--8-8--8-8--8-8--8-8--------------------------------------------------------------------
d--8-8--8-8--8-8--8-8--------------------------------------------------------------------
a--6-6--6-6--6-6--6-6---4-4-4-4-4-4-4-4-2-2-2-2-2-2-2-2-1-1-1-1-1-1-1-1------------------
e----------------------------------------------------------------------4-4-4-4-4-4-4-4-4-

e----------------------------------------------------------------------------------------
b----------------------------------------------------------------------------------------
g--8-8--8-8--8-8--8-8--------------------------------------------------------------------
d--8-8--8-8--8-8--8-8----------------------------------4-4-4-4-4-4-4-4-3-3-3-3-3-3-3-3---
a--6-6--6-6--6-6--6-6---4-4-4-4-4-4-4-4-2-2-2-2-2-2-2-2----------------------------------
e----------------------------------------------------------------------------------------

Chorus

e----------------------------------------------------------------------------------------
b------7--9--11--------------------------------------------------------------------------
g---8-----------8------------------------------------------------------------------------
d----------------------------------------------------------------------------------------
a--6--6--6--6------4-4-4-4-4-4-4-4-2-2-2-2-2-2-2-2-1-1-1-1-1-1-1-1-----------------------
e------------------------------------------------------------------4-4-4-4-4-4-4-4-4-----


e----------------------------------------------------------------------------------------
b------7--9--11--------------------------------------------------------------------------
g---8-----------8------------------------------------------------------------------------
d----------------------------------------------------------------------------------------
a--6--6--6--6------4-4-4-4-4-4-4-4-2-2-2-2-2-2-2-2-1-1-1-1-1-1-1-1-----------------------
e------------------------------------------------------------------4-4-4-4-4-4-4-4-4-----


e----------------------------------------------------------------------------------------
b------7--9--11--------------------------------------------------------------------------
g---8-----------8------------------------------------------------------------------------
d----------------------------------------------------------------------------------------
a--6--6--6--6------4-4-4-4-4-4-4-4-2-2-2-2-2-2-2-2-1-1-1-1-1-1-1-1-----------------------
e------------------------------------------------------------------4-4-4-4-4-4-4-4-4-----


e----------------------------------------------------------------------------------------
b------7--9--11--------------------------------------------------------------------------
g---8-----------8------------------------------------------------------------------------
d----------------------------------------------------------------------------------------
a--6--6--6--6------4-4-4-4-4-4-4-4-2-2-2-2-2-2-2-2-1-1-1-1-1-1-1-1-----------------------
e------------------------------------------------------------------4-4-4-4-4-4-4-4-4-----

Outro (distortion)

      D U  D U  D U  D U  D U  D U  D U  D U  D U  D U  D U  D U  D U  D U  D U    
e--------------------------------------------------------------------------------
b--------------------------------------------------------------------------------
g-----8-8--8-8--8-8--8-8--8-8--8-8--8-8--8-8--8-8--8-8--4-4--4-4--4-4--4-4--4-4--
d-----8-8--8-8--8-8--8-8--8-8--8-8--8-8--8-8--8-8--8-8--4-4--4-4--4-4--4-4--4-4--
a-----6-6--6-6--6-6--6-6--6-6--6-6--6-6--6-6--6-6--6-6--2-2--2-2--2-2--2-2--2-2--
e--------------------------------------------------------------------------------

      D U  D U  D U  D U  D U          
e-----------------------------
b-----------------------------
g-----4-4--4-4--4-4--4-4--4-4-
d-----4-4--4-4--4-4--4-4--4-4-
a-----2-2--2-2--2-2--2-2--2-2-
e-----------------------------

      D U  D U  D U  D U  D U  D U  D U  D U  D U  D U  D U  D U  D U  D U  D U    
e--------------------------------------------------------------------------------
b--------------------------------------------------------------------------------
g-----8-8--8-8--8-8--8-8--8-8--8-8--8-8--8-8--8-8--8-8--4-4--4-4--4-4--4-4--4-4--
d-----8-8--8-8--8-8--8-8--8-8--8-8--8-8--8-8--8-8--8-8--4-4--4-4--4-4--4-4--4-4--
a-----6-6--6-6--6-6--6-6--6-6--6-6--6-6--6-6--6-6--6-6--2-2--2-2--2-2--2-2--2-2--
e--------------------------------------------------------------------------------

      D U  D U  D U  D U  D U              
e-----------------------------
b-----------------------------
g-----4-4--4-4--4-4--4-4--4-4-
d-----4-4--4-4--4-4--4-4--4-4-
a-----2-2--2-2--2-2--2-2--2-2-
e-----------------------------


      D U  D U  D U  D U  D U  D U  D U  D U  D U  D U  D U  D U  D U  D U  D U    
e--------------------------------------------------------------------------------
b--------------------------------------------------------------------------------
g-----8-8--8-8--8-8--8-8--8-8--8-8--8-8--8-8--8-8--8-8--4-4--3-3--4-4--3-3--4-4--
d-----8-8--8-8--8-8--8-8--8-8--8-8--8-8--8-8--8-8--8-8--4-4--3-3--4-4--3-3--4-4--
a-----6-6--6-6--6-6--6-6--6-6--6-6--6-6--6-6--6-6--6-6--2-2--2-2--2-2--2-2--2-2--
e--------------------------------------------------------------------------------

      D U  D U  D U  D U  D U  D           
e--------------------------------
b--------------------------------
g-----3-3--4-4--3-3--4-4--3-3--8-
d-----3-3--4-4--3-3--4-4--3-3--8-
a-----2-2--2-2--2-2--2-2--2-2--6-
e--------------------------------

Tap to rate this tab
# A B C D E F G H I J K L M N O P Q R S T U V W X Y Z