Placebo - Twenty Years tab

Placebo
Twenty Years
Guitar Tab
Standard Tuning - EADGBE
Tabbed By Jonathan Mack

Okay,Placebo Dont Play This Song In Standard Tuning.
-Its Tuned One Semitone Up! However, I Find It Too Much
Of A Hassle To Up-Tune My Guitar To Just Play This Song.
So Here It Is In Standard E Tuning.

Intro/Verse One

0:00
|---------------------------|-------------------------->
|---------------------------|-------------------------->
|---------------------------|-------------------------->
|--10---6---10---10---6---10|--8---6---8---8---6---10-->
|8----8---8----8----8---8---|6---6---6---6---6---6----->
|---------------------------|-------------------------->

|-----------------------|----------------------------------|
|-----------------------|----------------------------------|
|----------------------5|----------------------------------|
|--6---6---6---6---6----|--6-----6-----6-----6-----6---6---| x4
|4---4---4---4---4---4--|3---3-3---3-3---3-3---3-3---3-----|
|-----------------------|----------------------------------|

Break One
0:56
|-------------------------------|---------------------------------|
|-------------------------------|---------------------------------|
|-------------------------------|---------------------------------|
|----6-----6-----6-----6-----6--|----6-----6-----6-----6-----6----| x1
|8-8---8-8---8-8---8-8---8-8---8|---------------------------------|
|-------------------------------|8-8---8-8---8-8---8-8---8-8---8--|

|-------------------------------|-----------------------|
|-------------------------------|-----------------------|
|-------------------------------|-----------------------|
|----6-----6-----6-----6-----6--|-----------------------| x1
|-------------------------------|-----------------------|
|6-6---6-6---6-6---6-6---6-6---6|/8---------------------|

Verse Two
1:11
|---------------------------|-------------------------->
|---------------------------|-------------------------->
|---------------------------|-------------------------->
|--10---6---10---10---6---10|--8---6---8---8---6---10-->
|8----8---8----8----8---8---|6---6---6---6---6---6----->
|---------------------------|-------------------------->

|-----------------------|----------------------------------|
|-----------------------|----------------------------------|
|----------------------5|----------------------------------|
|--6---6---6---6---6----|--6-----6-----6-----6-----6---6---| x2
|4---4---4---4---4---4--|3---3-3---3-3---3-3---3-3---3-----|
|-----------------------|----------------------------------|


Break Two
1:39
|-------------------------------|--------------------------------->
|-------------------------------|--------------------------------->
|-------------------------------|--------------------------------->
|----6-----6-----6-----6-----6--|----6-----6-----6-----6-----6----> 
|8-8---8-8---8-8---8-8---8-8---8|--------------------------------->
|-------------------------------|8-8---8-8---8-8---8-8---8-8---8-->

|-------------------------------|---------------------------------|
|-------------------------------|---------------------------------|
|-------------------------------|---------------------------------|
|----6-----6-----6-----6-----6--|----6-----6-----6-----6-----6----| x2
|-------------------------------|---------------------------------|
|6-6---6-6---6-6---6-6---6-6---6|8-8---8-8---8-8---8-8---8-8---8--|

Verse Three (Drums)

2:07
|---------------------------|-------------------------->
|---------------------------|-------------------------->
|---------------------------|-------------------------->
|--10---6---10---10---6---10|--8---6---8---8---6---10-->
|8----8---8----8----8---8---|6---6---6---6---6---6----->
|---------------------------|-------------------------->

|-----------------------|--------------------------------------------|
|-----------------------|---9-------9-------9-------9-------9--------|
|----------------------5|-----12------12------12------12------12-----|
|--6---6---6---6---6----|10------10------10------10------10------10--| x2
|4---4---4---4---4---4--|--------------------------------------------|
|-----------------------|--------------------------------------------|

Break Three
2:36
|-------------------------------|--------------------------------->
|-------------------------------|--------------------------------->
|-------------------------------|--------------------------------->
|----6-----6-----6-----6-----6--|----6-----6-----6-----6-----6----> 
|8-8---8-8---8-8---8-8---8-8---8|--------------------------------->
|-------------------------------|8-8---8-8---8-8---8-8---8-8---8-->

|-------------------------------|---------------------------------|
|-------------------------------|---------------------------------|
|-------------------------------|---------------------------------|
|----6-----6-----6-----6-----6--|----6-----6-----6-----6-----6----| x2
|-------------------------------|---------------------------------|
|6-6---6-6---6-6---6-6---6-6---6|8-8---8-8---8-8---8-8---8-8---8--|

Verse Four
3:04
|---------------------------|-------------------------->
|---------------------------|-------------------------->
|---------------------------|-------------------------->
|--10---6---10---10---6---10|--8---6---8---8---6---10-->
|8----8---8----8----8---8---|6---6---6---6---6---6----->
|---------------------------|-------------------------->

|-----------------------|--------------------------------------------|
|-----------------------|---9-------9-------9-------9-------9--------|
|----------------------5|-----12------12------12------12------12-----|
|--6---6---6---6---6----|10------10------10------10------10------10--| x2
|4---4---4---4---4---4--|--------------------------------------------|
|-----------------------|--------------------------------------------|

Break/Extension (Guitar One)
3:33
|---------------------------------------------------------------------------------------|
|---------------------------------------------------------------------------------------|
|-------------------------------------------------------------------88888888/99999999---|
|8888888888888888-10101010101010101010101010101010-8888888888888888-xxxxxxxx-xxxxxxxx---| x1
|xxxxxxxxxxxxxxxx--x-x-x-x-x-x-x-x-x-x-x-x-x-x-x-x-xxxxxxxxxxxxxxxx-66666666/77777777---|
|6666666666666666--8-8-8-8-8-8-8-8-8-8-8-8-8-8-8-8-6666666666666666---------------------|

Break/Extension (Guitar Two)
3:33
|-----------------------------------------------|
|---9-------9-------9-------9-------9-----------|
|-----12------12------12------12------12--------|
|10------10------10------10------10------10-----| x4
|-----------------------------------------------|
|-----------------------------------------------|


Verse Five/Outro
3:47
|---------------------------|-------------------------->
|---------------------------|-------------------------->
|---------------------------|-------------------------->
|--10---6---10---10---6---10|--8---6---8---8---6---10-->
|8----8---8----8----8---8---|6---6---6---6---6---6----->
|---------------------------|-------------------------->

|-----------------------|--------------------------------------------|
|-----------------------|---9-------9-------9-------9-------9--------|
|----------------------5|-----12------12------12------12------12-----|
|--6---6---6---6---6----|10------10------10------10------10------10--| x2
|4---4---4---4---4---4--|--------------------------------------------|
|-----------------------|--------------------------------------------|
Tap to rate this tab
 
# A B C D E F G H I J K L M N O P Q R S T U V W X Y Z