Song name
# A B C D E F G H I J K L M N O P Q R S T U V W X Y Z

Placebo - My Sweet Prince tab

This is the main guitar part used in all of the verses of the song, etc.
Note: Stefan plays guitar on this song.

C  --------------4-------------4-------------4--------------4--
C  -----------5-------------5-------------5--------------5-----
G# --------6-------------5-------------6--------------6--------
D# -----6-------------6-------------6--------------6-----------
A# --4-------------3-------------4--------------0--------------
F  ------------------------------------------------------------

"Me and the dragon..." bit (Let notes ring):

C  -----------------------4-------------------------4---------
C  --------------------5-------------------------5------------
G# --------6--------6---------------6--------6----------------
D# -----6-----------------------6-----------------------------
A# -------------------------0------------0--------------------
F  -0----------0----------------------------------------------


"You are the one..." bit:

C  ----------------------------------4----------
C  -------------------------------5-------------
G# --------6--------6-------6-------------------
D# ----6---------6-------6----------------------
A# ---------------------------------------------
F  -O---------0-------0-------0-----------------

C  ---------------------------------4-----------
C  ------------------------------5--------------
G# --------6--------6------6--------------------
D# ----6--------6-------6-----------------------
A# -0--------0-------0-------0------------------
F  ---------------------------------------------

These are all the parts you need for the song, as piano is used to fill the song out.
Tap to rate this tab
# A B C D E F G H I J K L M N O P Q R S T U V W X Y Z