Song name
# A B C D E F G H I J K L M N O P Q R S T U V W X Y Z

Placebo - This Picture tab

Intro:

e|----------------------------------------------------------------|
B|----------------------------------------------------------------|
G|----------------------------------------------------------------|
D|----------------------------------------------------------------|
A|---3-3----3-3-3----3-3-3----3-3-3----3-3-3----3-3-3----3-3-3----|
E|----------------------------------------------------------------|

e|----------------------------------------------------------------|
B|----------------------------------------------------------------|
G|----------------------------------------------------------------|
D|----------------------------------------------------------------|
A|---3-3-3---3-3-3----3-3-3----3-3-3----3-3-3----3-7-7----7-7-7---|
E|----------------------------------------------------------------|

e|----------------------------------------------------------------|
B|----------------------------------------------------------------|
G|----------------------------------------------------------------|
D|----------------------------------------------------------------|
A|---7-7-7----7-7-7----7-3-3----3-3-3----3-3-3----3-3-3----3-7-7--|
E|----------------------------------------------------------------|

e|----------------------------------------------------------------|
B|----------------------------------------------------------------|
G|----------------------------------------------------------------|
D|----------------------------------------------------------------|
A|---7-7-7----7-7-7----7-7-7----7-0-0----0-0-0----0-0-0----0-0-0--|
E|----------------------------------------------------------------|

e|----------------------------------------------------------------|
B|----------------------------------------------------------------|
G|----------------------------------------------------------------|
D|----------------------------------------------------------------|
A|---0-7-7----7-7-7----7-7-7----7-7-7----7-8-8----8-8-8----8-8-8--|
E|----------------------------------------------------------------|

e|----------------------------------------------------------------|
B|----------------------------------------------------------------|
G|----------------------------------------------------------------|
D|----------------------------------------------------------------|
A|---8-8-8----0-3-3----3-3-3----3-3-3----3-3-3--------------------|
E|----------------------------------------------------------------|

Verse:

C                    Em
Farewell the ashtray girl
                     C
Forbidden snowflake
                     Em
Beware this troubled world
                           A
Watch out for earthquakes
                Em 
Goodbye to open sores
                     F 
To broken semaphore
                     C
You know we miss her

We miss her picture

Chorus:

F                     C
Sometimes it's fated
              F
Disintegrated
                         C
For fear of growing old
F                     C
Sometimes it's fated
              F 
Assassinated
                         C
For fear of growing old

Verse:

C                    Em
Farewell the ashtray girl
                   C
Angelic fruitcake
                     F
Beware this troubled world
                     A
Control your intake
                Em
Goodbye to open sores
                         F
Goodbye and furthermore
                     C
You know we miss her

We miss her picture

Chorus:

F                     C
Sometimes it's fated
              F
Disintegrated
                         C
For fear of growing old
F                     C
Sometimes it's fated
              F 
Assassinated
                         C
For fear of growing old

Bridge:

A    Em
Hang on
          A
Though we try
     Em
It's gone
A    Em
Hang on
          A
Though we try
     Em
It's gone

Chorus:

F                     C
Sometimes it's fated
              F
Disintegrated
                         C
For fear of growing old
F                     C
Sometimes it's fated
              F
Assassinated
                         C
For fear of growing old
F
Can't stop growing old...
Tap to rate this tab
 
# A B C D E F G H I J K L M N O P Q R S T U V W X Y Z