Song name
# A B C D E F G H I J K L M N O P Q R S T U V W X Y Z

Placebo - Infra-red tab

I have to thank some of the other guys who tabbed this before me before I continue.

Intro / Verse:

e|------4--6--7--|
B|-7--4--4--4--4-|
G|---------------|
D|---------------|
A|---------------|
E|---------------| Repeat for entire verse

"One last thing before I shuffle off the planet,
 I will be the one to watch you crawl,
 So I came down to wish you an unhappy birthday..."

"Someone call the ambulance"

Pre-Chorus:

e|--------|
B|--------|
G|-9------|
D|-9(x16)-|
A|-7------|
E|--------|

"There's gonna be an accident"

Chorus 1:

e|---------------------|
B|---------------------|
G|-11-----9------------|
D|-11(x8)-9(x8)-9------|
A|--9-----7-----9(x16)-|
E|--------------7------|

"I'm comin' up on infra-red,
 Forget your running,
 I will find you,
 'Cause I can see in the dark..."

e|---------------------|
B|---------------------|
G|-11-----9-----8------|
D|-11(x8)-9(x8)-8(x16)-|
A|--9-----7-----6------|
E|---------------------|

"I'm comin up on infra-red,
 Forget your running,
 I will find you."

Verse
Pre-Chorus
Chorus 2 (same as Chorus 1)

Bridge (synth for guitar):

e|---6-7-6-|
B|-4-------|
G|---------|
D|---------|
A|---------|
E|---------| (Repeat that for bridge)

Pre-Chorus

Chorus 3:
e|---------------------|
B|---------------------|
G|-11-----9------------|
D|-11(x8)-9(x8)-9------|
A|--9-----7-----9(x16)-|
E|--------------7------|  (x3)

e|---------------------|
B|---------------------|
G|-11-----9-----8------|
D|-11(x8)-9(x8)-8(x16)-|
A|--9-----7-----6------|
E|---------------------|

END ON:
e|---|
B|---|
G|-8-|
D|-8-|
A|-6-|
E|---|

Order:
Intro
Verse
Pre-Chorus
Chorus 1
Verse
Pre-Chorus
Chorus 2 (same as Chorus 1)
Bridge
Pre-Chorus
Chorus 3
Tap to rate this tab
 
# A B C D E F G H I J K L M N O P Q R S T U V W X Y Z