Song name
# A B C D E F G H I J K L M N O P Q R S T U V W X Y Z

Placebo - Burger Queen tab

I have not seen one right tab for this song so i tabbed it up myself and i think that this sounds right.


|------------------------------------------------------|
|------------------------------------------------------|
|------------------------------------------------------|Repeat through song
|----------------------------------2-------------------|
|---4-4-5-4-4-4--0-000-0-0-0-0-4\-2--2-2-2-222/-5-5-4--|
|---5-5-5-5-5-5\-2-222-5-5-5-5-0--0----0-0-000--0-0-0--|




Verse
|----------------------------------------------------------------------|x2
|--12-12-12-10-10-10-8-8-8-7-3-3-12-121212-10-10-10-12-121212-10-10-10-|
|----------------------------------------------------------------------|
|----------------------------------------------------------------------|
|----------------------------------------------------------------------|
|----------------------------------------------------------------------|




Chorus
|----------------------------------------------|
|-8-8-8-8-8-8-8-8-7-7-8-10-77777-3h5-5-5-5-5-5-|
|----------------------------------------------|
|----------------------------------------------|
|----------------------------------------------|
|----------------------------------------------|


|------------------------------------------------------------|
|8-8-8-8-8-8-8-8-7-7-8-10-10-10-10-10-10-10-10-7-7-7-7-7-7-7-|
|------------------------------------------------------------|
|------------------------------------------------------------|
|------------------------------------------------------------|
|------------------------------------------------------------|

After the words 'He's a burger queen', the song goes quiet and in the background softly play this:

|-------------------------------------------------------------------|
|12121212121212121212121212121212-10101010101010101010101010101010--|
|-------------------------------------------------------------------|
|-------------------------------------------------------------------|
|-------------------------------------------------------------------|
|-------------------------------------------------------------------|

Repeat several times and then come in with:


|----------------------------------------------------------------------|
|--12-12-12-10-10-10-8-8-8-7-3-3-12-121212-10-10-10-12-121212-10-10-10-|
|----------------------------------------------------------------------|
|----------------------------------------------------------------------|
|----------------------------------------------------------------------|
|----------------------------------------------------------------------|

|------------------------------------------------------------------------|
|--12-12-12-10-10-10-8-8-8-7-3-3-12-121212-10-10-10-12-12-13-13-12-12-10-|
|------------------------------------------------------------------------|
|------------------------------------------------------------------------|
|------------------------------------------------------------------------|
|------------------------------------------------------------------------|

|----------------------------------------------|
|-8-8-8-8-8-8-8-8-7-7-8-10-77777-3h5-5-5-5-5-5-|
|----------------------------------------------|
|----------------------------------------------|
|----------------------------------------------|
|----------------------------------------------|


|------------------------------------------------------------|
|8-8-8-8-8-8-8-8-7-7-8-10-10-10-10-10-10-10-10-7-7-7-7-7-7-7-|
|------------------------------------------------------------|
|------------------------------------------------------------|
|------------------------------------------------------------|
|------------------------------------------------------------|

The singing comes in again here.



That is all you need, you may need to improvise in some cases but that is basicly it.

h: Hammer on
\: Slide Down
/: Slide up 
Tap to rate this tab
 
# A B C D E F G H I J K L M N O P Q R S T U V W X Y Z