Song name
# A B C D E F G H I J K L M N O P Q R S T U V W X Y Z

Placebo - Miss Moneypenny tab

-------------------------------------------------------------------------------
			     MISS MONEYPENNY - Placebo
-------------------------------------------------------------------------------
Tabbed by:Luis Gustavo Hernández Collado
Email:ltavo_87@hotmail.com

Tuning:DADGBe

Intro
(Eh-em...)
e|---------------------|
B|---------------------|
G|(8-8-9999-1010-9999)-|X4
D|-6-6-6666-6-6--6666--|
A|-6-6-7777-8-8--7777--|
D|-6-6-6666-6-6--6666--|

Verse 1
(Penance for his sin, he locked in it for just a little while...)
e|----------|
B|----------|
G|-------8r-|X4
D|-----6r---|
A|---6r-----|
D|-6r-------|
r=let ring

Chorus 1
(Miss Moneypenny...)
e|---------------------|
B|---------------------|
G|(8-8-9999-1010-9999)-|X4
D|-6-6-6666-6-6--6666--|
A|-6-6-7777-8-8--7777--|
D|-6-6-6666-6-6--6666--|

Verse 2
(Pitter patter of the eyelid, on the first roll of the dice...)
e|----------|
B|----------|
G|-------8r-|X4
D|-----6r---|
A|---6r-----|
D|-6r-------|
r=let ring

Chorus 2
(Miss Moneypenny...)
e|---------------------|
B|---------------------|
G|(8-8-9999-1010-9999)-|X4
D|-6-6-6666-6-6--6666--|
A|-6-6-7777-8-8--7777--|
D|-6-6-6666-6-6--6666--|

Interlude
(Every job he saves girl, martini, mobile phone...)
e|----------------------------------------|
B|----------------------------------------|
G|---------------7777------5555------7777-|
D|-33333333-7777-7777-3333-5555-7777-7777-|
A|-33333333-7777-5555-3333-3333-7777-5555-|
D|-33333333-7777------3333------7777------|

e|---------------------------------|
B|---------------------------------|
G|---------------7777------5555----|
D|-33333333-7777-7777-3333-5555-7r-|
A|-33333333-7777-5555-3333-3333-7r-|
D|-33333333-7777------3333------7r-|
r=let ring

Chorus 3/Outro
(0898 007...)
e|---------------------|
B|---------------------|
G|(8-8-9999-1010-9999)-|X4
D|-6-6-6666-6-6--6666--|
A|-6-6-7777-8-8--7777--|
D|-6-6-6666-6-6--6666--|

e|----------|
B|----------|
G|-------8r-|X4
D|-----6r---|
A|---6r-----|
D|-6r-------|
r=let ring
Tap to rate this tab
# A B C D E F G H I J K L M N O P Q R S T U V W X Y Z