Song name
# A B C D E F G H I J K L M N O P Q R S T U V W X Y Z

Placebo - Twenty Years tab

Artist - Placebo
Song - Twenty Years
Album - Greatist Hits CD1
Tuning: Standard

Could not find a correct tab for this song so here it is, enjoy.

Intro/Verse
e|-------------------|-------------------|-------------------|
B|-------------------|-------------------|-------------------|
G|----------------5--|----------------5--|-------------------|
D|-------8---6-------|-------8---6-------|-------8---6----8--|
A|-----8---8----8----|-----8---8----8----|-----6---6----6----|
E|-------------------|-------------------|-------------------|

e|-------------------|-------------------|-------------------|
B|-------------------|-------------------|-------------------|
G|----------------5--|-------------------|----------------5--|
D|-------8---6-------|-------6---5----6--|-------6---5-------|
A|-----6---6----6----|-----4---4----4----|-----4---4----4----|
E|-------------------|-------------------|-------------------|

e|-----------------------------------------------------------|
B|-----------------------------------------------------------|
G|-----------------------------------------------------------|
D|--------5-3-----5-3-----5-3-----5-3-----5-3----------------|
A|-----3-------3-------3-------3-------3-------3-------------|
E|-----------------------------------------------------------|

Chorus
e|-------------------|-------------------|-------------------|
B|--1-----1----1-----|--1-----1----1-----|--1-----1-----1----|
G|----1-----1----1---|----1-----1----1---|----0-----0-----0--|
D|------3-----3------|------3-----3------|------3-----3------|
A|-------------------|-------------------|-------------------|
E|-------------------|-------------------|-------------------|

e|-------------------|-------------------|-------------------|
B|--1-----1----1-----|--2-----2----2-----|--2-----2-----2----|
G|----0-----0----0---|----3-----3----3---|----3-----3-----3--|
D|------3-----3------|------3-----3------|------3-----3------|
A|-------------------|-------------------|-------------------|
E|-------------------|-------------------|-------------------|

e|-------------------|-------------------|
B|--1-----1----1-----|--1-----1----1-----|
G|----0-----0----0---|----0-----0----0---|
D|------3-----3------|------3-----3------|
A|-------------------|-------------------|
E|-------------------|-------------------|
Tap to rate this tab
 
# A B C D E F G H I J K L M N O P Q R S T U V W X Y Z