Song name
# A B C D E F G H I J K L M N O P Q R S T U V W X Y Z

Placebo - Brick Shithouse tab

-------------------------------------------------------------------------------
			     BRICK SHITHOUSE - Placebo
-------------------------------------------------------------------------------
Tabbed by:Luis Gustavo Hernndez Collado
Email:ltavo_87@hotmail.com

Tuning:DADGBe

Intro
(This is the brick shithouse...)
e|-------------------|
B|-------------------|
G|-9-9999-9----------| X10
D|-8-8888-8-5-5555-4-|
A|-6-6666-6-x-xxxx-x-|
D|----------5-5555-4-|

e|-----------|
B|-----------|
G|-----------| X4
D|-8888-9999-|
A|-9999-9999-|
D|-9999-9999-|

(Don't you wish you'd never met her?...)
e|-------------------|
B|-------------------|
G|-9-9999-9----------| X4
D|-8-8888-8-5-5555-4-|
A|-6-6666-6-x-xxxx-x-|
D|----------5-5555-4-|

Verse 1
(Lay him down, lie on,lay him...down...)
e|-----------|
B|-----------|
G|-----------| X4
D|-8888-9999-|
A|-9999-9999-|
D|-9999-9999-|

(...now your lover went and put me in the ground...)
e|---------------------------------------------|
B|-11-11-11-11-9-9-9-9-11-11-11-11-12-12-12-12-|
G|---------------------------------------------|
D|---------------------------------------------|
A|---------------------------------------------|
D|---------------------------------------------|

(...I'll be watching, when he's around...)
e|------------------------|
B|------------------------|
G|------------------------|
D|-8888-9999-8888-99-1111-|
A|-9999-9999-9999-99-9-9--|
D|-9999-9999-9999-99-9-9--|

(...now your lover went and put me in the ground...)
e|---------------------------------------------|
B|-11-11-11-11-9-9-9-9-11-11-11-11-12-12-12-12-|
G|---------------------------------------------|
D|---------------------------------------------|
A|---------------------------------------------|
D|---------------------------------------------|

(...I'll be watching...)
e|------------------------|
B|------------------------|
G|------------------------|
D|-8888-9999-8888-99-1111-|
A|-9999-9999-9999-99-9-9--|
D|-9999-9999-9999-99-9-9--|

Chorus 1
(Meet the brick shithouse...)
e|-------------------|
B|-------------------|
G|-9-9999-9----------| X4
D|-8-8888-8-5-5555-4-|
A|-6-6666-6-x-xxxx-x-|
D|----------5-5555-4-|

Verse 2
(Lay him down, lie on,lay him...down...)
e|-----------|
B|-----------|
G|-----------| X4
D|-8888-9999-|
A|-9999-9999-|
D|-9999-9999-|

(...now your lover went and put me in the ground...)
e|---------------------------------------------|
B|-11-11-11-11-9-9-9-9-11-11-11-11-12-12-12-12-|
G|---------------------------------------------|
D|---------------------------------------------|
A|---------------------------------------------|
D|---------------------------------------------|

(...I'll be watching, when he's around...)
e|------------------------|
B|------------------------|
G|------------------------|
D|-8888-9999-8888-99-1111-|
A|-9999-9999-9999-99-9-9--|
D|-9999-9999-9999-99-9-9--|

(...now your lover went and put me in the ground...)
e|---------------------------------------------|
B|-11-11-11-11-9-9-9-9-11-11-11-11-12-12-12-12-|
G|---------------------------------------------|
D|---------------------------------------------|
A|---------------------------------------------|
D|---------------------------------------------|

(...I'll be watching, when he's around...)
e|------------------------|
B|------------------------|
G|------------------------|
D|-8888-9999-8888-99-1111-|
A|-9999-9999-9999-99-9-9--|
D|-9999-9999-9999-99-9-9--|

(...when you cum you never make a single sound...)
e|---------------------------------------------|
B|-11-11-11-11-9-9-9-9-11-11-11-11-12-12-12-12-|
G|---------------------------------------------|
D|---------------------------------------------|
A|---------------------------------------------|
D|---------------------------------------------|

(...I'll be watching, when he's around...)
e|------------------------|
B|------------------------|
G|------------------------|
D|-8888-9999-8888-99-1111-|
A|-9999-9999-9999-99-9-9--|
D|-9999-9999-9999-99-9-9--|

(...when he's around, when he's around...)
e|---------------------------------------------|
B|-11-11-11-11-9-9-9-9-11-11-11-11-12-12-12-12-|
G|---------------------------------------------|
D|---------------------------------------------|
A|---------------------------------------------|
D|---------------------------------------------|

(...he's around...)
e|------------------------|
B|------------------------|
G|------------------------|
D|-8888-9999-8888-99-1111-|
A|-9999-9999-9999-99-9-9--|
D|-9999-9999-9999-99-9-9--|

Chorus 2
(Don't you wish you'd never met her?...)
e|-------------------|
B|-------------------|
G|-9-9999-9----------| X4
D|-8-8888-8-5-5555-4-|
A|-6-6666-6-x-xxxx-x-|
D|----------5-5555-4-|

Verse 3
(Lay him down, lie on, lay him...down...)
e|-----------|
B|-----------|
G|-----------| X4
D|-8888-9999-|
A|-9999-9999-|
D|-9999-9999-|

(...now your lover went and put me in the ground...)
e|---------------------------------------------|
B|-11-11-11-11-9-9-9-9-11-11-11-11-12-12-12-12-|
G|---------------------------------------------|
D|---------------------------------------------|
A|---------------------------------------------|
D|---------------------------------------------|

(...I'll be watching, when he's around...)
e|------------------------|
B|------------------------|
G|------------------------|
D|-8888-9999-8888-99-1111-|
A|-9999-9999-9999-99-9-9--|
D|-9999-9999-9999-99-9-9--|

(...now your lover went and put me in the ground...)
e|---------------------------------------------|
B|-11-11-11-11-9-9-9-9-11-11-11-11-12-12-12-12-|
G|---------------------------------------------|
D|---------------------------------------------|
A|---------------------------------------------|
D|---------------------------------------------|

(...I'll be watching, when he's around...)
e|------------------------|
B|------------------------|
G|------------------------|
D|-8888-9999-8888-99-1111-|
A|-9999-9999-9999-99-9-9--|
D|-9999-9999-9999-99-9-9--|

(...when you cum you never make a single sound...)
e|---------------------------------------------|
B|-11-11-11-11-9-9-9-9-11-11-11-11-12-12-12-12-|
G|---------------------------------------------|
D|---------------------------------------------|
A|---------------------------------------------|
D|---------------------------------------------|

(...I'll be watching, when he's around...)
e|------------------------|
B|------------------------|
G|------------------------|
D|-8888-9999-8888-99-1111-|
A|-9999-9999-9999-99-9-9--|
D|-9999-9999-9999-99-9-9--|

(...when he's around, when he's around...)
e|---------------------------------------------|
B|-11-11-11-11-9-9-9-9-11-11-11-11-12-12-12-12-|
G|---------------------------------------------|
D|---------------------------------------------|
A|---------------------------------------------|
D|---------------------------------------------|

(...he's around...)
e|------------------------|
B|------------------------|
G|------------------------|
D|-8888-9999-8888-99-1111-|
A|-9999-9999-9999-99-9-9--|
D|-9999-9999-9999-99-9-9--|

Chorus 3/Outro
(Don't you wish you'd never met her?...)
e|-------------------|
B|-------------------|
G|-9-9999-9----------| X4
D|-8-8888-8-5-5555-4-|
A|-6-6666-6-x-xxxx-x-|
D|----------5-5555-4-|
Tap to rate this tab
# A B C D E F G H I J K L M N O P Q R S T U V W X Y Z