Song name
# A B C D E F G H I J K L M N O P Q R S T U V W X Y Z

Placebo - Ask For Answers tab

Song: Ask For Answers
Artist: Placebo
Album: Without You I'm Nothing (1998)
Tuning: Guitar - F.A#.D#.G#.C.C, Bass - F.A#.D#.G#
by Chris - i put the bass in too because no one else had done it properly.

Intro

Bass:
G#--------------------------------------------------------|
D#-9-10--12-10--9-9h10-9-------9-10--12-10--9-9h10-9------|
A#-----------------------10~-------------------------10~--|
F---------------------------------------------------------|

Guitar:
C------------------------0~--------------------------0~---|
C------------------------0~--------------------------0~---|
G#-----------------------0~--------------------------0~---|
D#-----------------------5~--------------------------5~---|
A#-----------------------5~--------------------------5~---|
F------------------------3~--------------------------3~---|

Verse

Bass:
G#--------------------------------------------------------|
D#-9-10--12-10--9-9h10-9-------9-10--12-10--9-9h10-9------|
A#-----------------------10~-------------------------10~--|
F---------------------------------------------------------|

Guitar:
C----0~------------------0~------0~------------------0~---|
C----0~------------------0~------0~------------------0~---|
G#---5~------------------0~------5~------------------0~---|
D#---5~------------------5~------5~------------------5~---|
A#---3~------------------5~------3~------------------5~---|
F------------------------3~--------------------------3~---|
                         Time...                     Hanging...

Bass:
G#--------------------------------------------------------|
D#-9-10--12-10--9-9h10-9-------9-10--12-10--9-9h10-9------|
A#-----------------------10~-------------------------10~--|
F---------------------------------------------------------|

Guitar:
C----0~------------------0~------0~------------------0~---|
C----0~------------------0~------0~------------------0~---|
G#---5~------------------0~------5~------------------0~---|
D#---5~------------------5~------5~------------------5~---|
A#---3~------------------5~------3~------------------5~---|
F------------------------3~--------------------------3~---|
                         Always...                   Pictures...

Chorus

Bass:
G#-4--4-4/7-7~---4--4-4/7-7~---4--4-4/7-7--7-7-7/11-11-9~-|
D#--------------------------------------------------------|
A#--------------------------------------------------------|
F---------------------------------------------------------|

Guitar:
C--0--0-0/-0~----0--0-0/-0~----0--0-0/-0~--------------0~-|
C--0--0-0/-0~----0--0-0/-0~----0--0-0/-0~--------------0~-|
G#-0--0-0/11~----0--0-0/11~----0--0-0/11~--------------5~-|
D#-9--9-9/12~----9--9-9/12~----9--9-9/12~--------------5~-|
A#-9--9-9/12~----9--9-9/12~----9--9-9/12~--------------3~-|
F--7--7-7/10~----7--7-7/10~----7--7-7/10~-----------------|
             Get...        This...                       There...

Bass:
G#-4--4-4/7-7~---4--4-4/7-7~---4--4-4/7-7--7-7-7/11-11-9~-|
D#--------------------------------------------------------|
A#--------------------------------------------------------|
F---------------------------------------------------------|

Guitar:
C--0--0-0/-0~----0--0-0/-0~----0--0-0/-0~--------------0~-|
C--0--0-0/-0~----0--0-0/-0~----0--0-0/-0~--------------0~-|
G#-0--0-0/11~----0--0-0/11~----0--0-0/11~--------------5~-|
D#-9--9-9/12~----9--9-9/12~----9--9-9/12~--------------5~-|
A#-9--9-9/12~----9--9-9/12~----9--9-9/12~--------------3~-|
F--7--7-7/10~----7--7-7/10~----7--7-7/10~-----------------|
             This...       I might...                    To ask...

Verse Two

Bass:
G#--------------------------------------------------------|
D#-9-10--12-10--9-9h10-9-------9-10--12-10--9-9h10-9------|
A#-----------------------10~-------------------------10~--|
F---------------------------------------------------------|

Guitar:
C----0~------------------0~------0~------------------0~---|
C----0~------------------0~------0~------------------0~---|
G#---5~------------------0~------5~------------------0~---|
D#---5~------------------5~------5~------------------5~---|
A#---3~------------------5~------3~------------------5~---|
F------------------------3~--------------------------3~---|
                         Always...                   Softer...

Bass:
G#--------------------------------------------------------|
D#-9-10--12-10--9-9h10-9-------9-10--12-10--9-9h10-9------|
A#-----------------------10~-------------------------10~--|
F---------------------------------------------------------|

Guitar:
C----0~------------------0~------0~------------------0~---|
C----0~------------------0~------0~------------------0~---|
G#---5~------------------0~------5~------------------0~---|
D#---5~------------------5~------5~------------------5~---|
A#---3~------------------5~------3~------------------5~---|
F------------------------3~--------------------------3~---|
                         Dog...                 It's who...

Chorus

Bass:
G#-4--4-4/7-7~---4--4-4/7-7~---4--4-4/7-7--7-7-7/11-11-9~-|
D#--------------------------------------------------------|
A#--------------------------------------------------------|
F---------------------------------------------------------|

Guitar:
C--0--0-0/-0~----0--0-0/-0~----0--0-0/-0~--------------0~-|
C--0--0-0/-0~----0--0-0/-0~----0--0-0/-0~--------------0~-|
G#-0--0-0/11~----0--0-0/11~----0--0-0/11~--------------5~-|
D#-9--9-9/12~----9--9-9/12~----9--9-9/12~--------------5~-|
A#-9--9-9/12~----9--9-9/12~----9--9-9/12~--------------3~-|
F--7--7-7/10~----7--7-7/10~----7--7-7/10~-----------------|
             Give...        This...                      There...

Bass:
G#-4--4-4/7-7~---4--4-4/7-7~---4--4-4/7-7--7-7-7/11-11-9~-|
D#--------------------------------------------------------|
A#--------------------------------------------------------|
F---------------------------------------------------------|

Guitar:
C--0--0-0/-0~----0--0-0/-0~----0--0-0/-0~--------------0~-|
C--0--0-0/-0~----0--0-0/-0~----0--0-0/-0~--------------0~-|
G#-0--0-0/11~----0--0-0/11~----0--0-0/11~--------------5~-|
D#-9--9-9/12~----9--9-9/12~----9--9-9/12~--------------5~-|
A#-9--9-9/12~----9--9-9/12~----9--9-9/12~--------------3~-|
F--7--7-7/10~----7--7-7/10~----7--7-7/10~-----------------|
             This...       I might...                    To ask...

Verse Three

Bass:
G#--------------------------------------------------------|
D#-9-10--12-10--9-9h10-9-------9-10--12-10--9-9h10-9------|
A#-----------------------10~-------------------------10~--|
F---------------------------------------------------------|

Guitar:
C-----------------------------------------------------------|
C-----------------------------------------------------------|
G#----------0~---------------0~---------0~---------------0~-|
D#----------------------------------------------------------|
A#----------------------------------------------------------|
F----5~------------------3~------5~------------------3~-----|
                          These...                   Wrapped...

Bass:
G#--------------------------------------------------------|
D#-9-10--12-10--9-9h10-9-------9-10--12-10--9-9h10-9------|
A#-----------------------10~-------------------------10~--|
F---------------------------------------------------------|

Guitar:
C-----------------------------------------------------------|
C-----------------------------------------------------------|
G#----------0~---------------0~---------0~---------------0~-|
D#----------------------------------------------------------|
A#----------------------------------------------------------|
F----5~------------------3~------5~------------------3~-----|
                         Tiny...                      These...

Chorus

Bass:
G#-4--4-4/7-7~---4--4-4/7-7~---4--4-4/7-7--7-7-7/11-11-9~-|
D#--------------------------------------------------------|
A#--------------------------------------------------------|
F---------------------------------------------------------|

Guitar:
C--0--0-0/-0~----0--0-0/-0~----0--0-0/-0~--------------0~-|
C--0--0-0/-0~----0--0-0/-0~----0--0-0/-0~--------------0~-|
G#-0--0-0/11~----0--0-0/11~----0--0-0/11~--------------5~-|
D#-9--9-9/12~----9--9-9/12~----9--9-9/12~--------------5~-|
A#-9--9-9/12~----9--9-9/12~----9--9-9/12~--------------3~-|
F--7--7-7/10~----7--7-7/10~----7--7-7/10~-----------------|
             Get...        This...                      There...

Bass:
G#-4--4-4/7-7~---4--4-4/7-7~---4--4-4/7-7--7-7-7/11-11-9~-|
D#--------------------------------------------------------|
A#--------------------------------------------------------|
F---------------------------------------------------------|

Guitar:
C--0--0-0/-0~----0--0-0/-0~----0--0-0/-0~--------------0~-|
C--0--0-0/-0~----0--0-0/-0~----0--0-0/-0~--------------0~-|
G#-0--0-0/11~----0--0-0/11~----0--0-0/11~--------------5~-|
D#-9--9-9/12~----9--9-9/12~----9--9-9/12~--------------5~-|
A#-9--9-9/12~----9--9-9/12~----9--9-9/12~--------------3~-|
F--7--7-7/10~----7--7-7/10~----7--7-7/10~-----------------|
             This...       I might...                    To ask...

Bridge

Bass:
G#---------------------------------------------------------|
D#-9--------------9~------------9~-------------9~----------|
A#---7~-----10~----------10~------------10~------------10~-|
F----------------------------------------------------------|

Guitar:
C-------0~-----------0~------------0~-------------0~---0~-|
C-------0~-----------0~------------0~-------------0~---0~-|
G#----------0~-----------0~-------------0~-------------0~-|
D#-----------------------------------------------------5~-|
A#-----------------------------------------------------5~-|
F------------------------------------------------------3~-|
             These...     These...       These...       These...

Chorus

Bass:
G#-4--4-4/7-7~---4--4-4/7-7~---4--4-4/7-7--7-7-7/11-11-9~-|
D#--------------------------------------------------------|
A#--------------------------------------------------------|
F---------------------------------------------------------|

Guitar:
C--0--0-0/-0~----0--0-0/-0~----0--0-0/-0~--------------0~-|
C--0--0-0/-0~----0--0-0/-0~----0--0-0/-0~--------------0~-|
G#-0--0-0/11~----0--0-0/11~----0--0-0/11~--------------5~-|
D#-9--9-9/12~----9--9-9/12~----9--9-9/12~--------------5~-|
A#-9--9-9/12~----9--9-9/12~----9--9-9/12~--------------3~-|
F--7--7-7/10~----7--7-7/10~----7--7-7/10~-----------------|
             Get...        This...                      There...

Bass:
G#-4--4-4/7-7~---4--4-4/7-7~---4--4-4/7-7--7-7-7/11-11-9~------------|
D#-------------------------------------------------------------9~----|
A#---------------------------------------------------------------10~-|
F--------------------------------------------------------------------|

Guitar:
C--0--0-0/-0~----0--0-0/-0~----0--0-0/-0~--------------0~-|
C--0--0-0/-0~----0--0-0/-0~----0--0-0/-0~--------------0~-|
G#-0--0-0/11~----0--0-0/11~----0--0-0/11~--------------5~-|
D#-9--9-9/12~----9--9-9/12~----9--9-9/12~--------------5~-|
A#-9--9-9/12~----9--9-9/12~----9--9-9/12~--------------3~-|
F--7--7-7/10~----7--7-7/10~----7--7-7/10~-----------------|
             This...       This...                    To ask...

Outro

Guitar - whole thing seven times:
C---------------------------------------------------|
C--9--9--9--9--9--11-11-12-12-12-12-12-12-12-12-12--|
G#-10-10-10-10-10-10-10-10-10-9--9--9--9--9--9--9---|
D#--------------------------------------------------|
A#--------------------------------------------------|
F---------------------------------------------------|

C---------------------------------------------------|
C--9--9--9--9--9--11-11-11-7-7-7-7-7-7-7-7----------|
G#-10-10-10-10-10-10-10-10-9-9-9-9-9-9-9-9----------|
D#--------------------------------------------------|
A#--------------------------------------------------|
F---------------------------------------------------|

Bass - on third time, played eleven times:
G#------------12-----12-----------------------------|
D#---------9---------------7-9-9-7-9-9-7-9----------|
A#----------------------10--------------------------|
F--8~-------------8---------------------------------|

Guitar:
C---------------------------------------------------|
C--9--9--9--9--9--11-11-12-12-12-12-12-12-12-12-12--|
G#-10-10-10-10-10-10-10-10-10-9--9--9--9--9--9--9---|
D#--------------------------------------------------|
A#--------------------------------------------------|
F---------------------------------------------------|

C---------------------------------------------------|
C--9--9--9--9--9--11-11-11-7~~~~~-------------------|
G#-10-10-10-10-10-10-10-10-9~~~~~-------------------|
D#--------------------------------------------------|
A#--------------------------------------------------|
F---------------------------------------------------|

Bass:
G#------------12-----12-----------------------------|
D#---------9---------------7-9~~~~~-----------------|
A#----------------------10--------------------------|
F--8~-------------8---------------------------------|
Tap to rate this tab
# A B C D E F G H I J K L M N O P Q R S T U V W X Y Z