Song name
# A B C D E F G H I J K L M N O P Q R S T U V W X Y Z

Placebo - Without You Im Nothing tab

PLACEBO GUITAR TABLATURE

WITHOUT YOU I'M NOTHING

Tabbed by Ricardo Reis
email : RicardoRei5@hotmail.com

INTRO


C  -------------------------------------------------|
C  -0--0--0-0-0-0-0-0-0-----0---0--0--0--0-0-0----0-|
G# -4--4--4-4-4-0-0-0-0-----9---9--9--9--0-0-0----4-|
D# -3--3--3-3-3-0-0-0-0-10--10--10-10-10-0-0-0-3--3-|
A# -0--0--0-0-0-0-0-0-0-0---0---0--0--0--0-0-0-0--0-|
F  -------------------------------------------------|

C  ------------------------------|
C  -0-0-0-0-0-0---------5--5-0-0-|
G# -4-4-4-0-0-0---------5--5-0-0-|
D# -3-3-3-0-0-0---------5--5-0-0-|  (1x)
A# -0-0-0-0-0-0--0-0-0--0--0-0-0-|
F  ------------------------------|

Verse

C  ---------------------------------------------------|
C  -0--0-0-0-0-0-0-0-0-------0---0--0--0--0--0--0--0--|
G# -4--4-4-4-4-4-4-4-0-------9---9--9--9--9--9--9--0--|
D# -3--3-3-3-3-3-3-3-0-10-10-10--10-10-10-10-10-10-0--|
A# -0--0-0-0-0-0-0-0-0-0--0--0---0--0--0--0--0--0--0--|
F  ---------------------------------------------------|

C  -----------------------------------|
C  -----0--0-0-0-0----------5---5-0-0-|
G# -----4--4-4-4-0----------5---5-0-0-| (x5)
D# -3-3-3--3-3-3-0----------5---5-0-0-|
A# -0-0-0--0-0-0-0-0-0-0-0--0---0-0-0-|
F  -----------------------------------|

"TICK TOCK" part


C  -----------------------------------------------|
C  -------1--1-0-1-0-----1-0-1---1-0-1-0---1-0-1--|
G# -------2--2-----------2-------2---------2------|
D# -------2--2-----------2-------2---------2------|
A# -------0--0-----------0-------0---------0------|
F  -----------------------------------------------|

C  ---------------------------------------------------------|
C  -------1-1-0-1-1----0-1-----1-1-0-1-1---0-1--------------|
G# -------2-2------------------2-2--------------------------|
D# -------3-3--------3---------3-3-------3------------------|
A# -------3-3------------------3-3--------------------------|
F  ---------------------------------------------------------|

C  ---------------------------------------------------------|
C  -------1--1-0-1------------1--1-0-1-1---0----------------|
G# -------2--2-----2----------2--2-------2------------------|
D# -------2--2----------------2--2--------------------------|
A# -------0--0----------------0--0--------------------------|
F  ---------------------------------------------------------|


"I'M UNCLEAN, A LIBERTINE..." part

C  -----------------------------------------------|
C  --6-6-6-6-6-6-6-6-6-6-6-6-6-6-6-6-0-0-0--------|
G# --7-7-7-7-7-7-7-7-7-7-7-7-7-7-7-7-0-0-0--------| (1x)
D# --0-0-0-0-0-0-0-0-0-0-0-0-0-0-0-0-0-0-0--------|
A# -----------------------------------------------|
F  -----------------------------------------------|

C  -----------------------------------------------|
C  --0-0-0-0-1--1-1-1-1-1-1-1-1-1-1-1-1-----------|
G# --2-2-2-2-2--2-2-2-2-2-2-2-2-2-2-2-2-----------| (1x)
D# --2-2-2-2-2--2-2-2-2-2-2-2-2-2-2-2-2-----------|
A# --0-0-0-0-0--0-0-0-0-0-0-0-0-0-0-0-0-----------|
F  -----------------------------------------------|

C  -----------------------------------------------|
C  --6-6-6-6-6-6-6-6-6-6-6-6-6-6-6-6-0-0-0--------|
G# --7-7-7-7-7-7-7-7-7-7-7-7-7-7-7-7-0-0-0--------| (1x)
D# --0-0-0-0-0-0-0-0-0-0-0-0-0-0-0-0-0-0-0--------|
A# -----------------------------------------------|
F  -----------------------------------------------|


C  0--0--0--0----0----0--0--0--0--0--0--0--0--0---|
C  0--0--0--0----10---10-10-10-10-10-10-10-10-10--|
G# 9--9--9--9----9----9--9--9--9--9--9--9--9--9---| (1x)
D# 9--9--9--9----10---10-10-10-10-10-10-10-10-10--|
A# 0--0--0--0----0----0--0--0--0--0--0--0--0--0---|
F  -----------------------------------------------|

(Live version)

C  0--0--0--0----0--0--0--0--0--0--0--0--0--0-----|
C  12-12-12-10---10-10-10-10-10-10-10-10-10-10----|
G# 9--9--9--9----9--9--9--9--9--9--9--9--9--9-----|
D# 10-10-10-10---10-10-10-10-10-10-10-10-10-10----|
A# 0--0--0--0----0--0--0--0--0--0--0--0--0--0-----|
F  -----------------------------------------------|


"I...TAKE THE PLAN..." part:

C  -----------------------------------------------|
C  --15-15-15-15-15-15-15-15-15-15-15-15-15-------|
G# --14-14-14-14-14-14-14-14-14-14-14-14-14-------|
D# --15-15-15-15-15-15-15-15-15-15-15-15-15-------|
A# -----------------------------------------------|
F  -----------------------------------------------|

C  -----------------------------------------------|
C  --16-15-17-17-17-17-17-16-17-15---0-0-0--------|
G# --14-14-14-14-14-14-14------------0-0-0--------|
D# ----------------------------------0-0-0--------|
A# -----------------------------------------------|
F  -----------------------------------------------|


C  0--0--0--0----0--0--0--0--0--0--0--0--0--0-----|
C  0--0--0--10---10-10-10-10-10-10-10-10-10-10----|
G# 9--9--9--9----9--9--9--9--9--9--9--9--9--9-----|
D# 9--9--9--10---10-10-10-10-10-10-10-10-10-10----|
A# 0--0--0--0----0--0--0--0--0--0--0--0--0--0-----|
F  -----------------------------------------------| Repeat this 3 parts 2x


"WITHOUT YOU..." part

(Guitar 1)

C  --------------------------------------------------------------------|
C  -8-------8-------8-----8---------8-----8-------8------8-------------|
G# ---10------10------10-----10-------9------9-------9------9----------| (x4)
D# ------10------10------10------10------10------10-----10------10-----|
A# ---------0-------0-------0--------0-------0-------0------0-------0--|
F  --------------------------------------------------------------------|

(Guitar 2)

C  -----------------------------------------------------------|
C  --8--8--8--8--8--8--8--8--8--8--8--8--8--8--8--8--8--8--8--|
G# --10-10-10-10-10-10-10-10-10-10-10-10-10-10-10-10-10-10-10-|
D# --10-10-10-10-10-10-10-10-10-10-10-10-10-10-10-10-10-10-10-|
A# --0--0--0--0--0--0--0--0--0--0--0--0--0--0--0--0--0--0--0--|
F  -----------------------------------------------------------|

C  --0-0-0-0-7-7-7-7-7-0-0-0-0-7-7-7-7-7-0-0-0-|
C  --8-8-8-8-0-0-0-0-0-8-8-8-8-0-0-0-0-0-8-8-8-|
G# --9-9-9-9-9-9-9-9-9-9-9-9-9-9-9-9-9-9-9-9-9-|
D# --9-9-9-9-9-9-9-9-9-9-9-9-9-9-9-9-9-9-9-9-9-|
A# --------------------------------------------|  repeat both parts
F  --------------------------------------------|        (4x)


OUTRO:

C  --------0----------------------------|
C  ---8----8----------------------------|
G# --10----9----------------------------|
D# --10----9----9-----------------------|
A# ---0---------------0-(let ring)------|
F  -------------------------------------|

:)
Tap to rate this tab
# A B C D E F G H I J K L M N O P Q R S T U V W X Y Z