Guitaretab - guitar tabs
Song name
# A B C D E F G H I J K L M N O P Q R S T U V W X Y Z

Placebo - Allergic tab

Palm Mute

C  ---------------------------------------
C  ---------------------------------------
G# ---------------------------------------
D# ---------------------------------------
A# ---------------------------------------
F  -7-7-7-7-12-12-12-12-5-5-5-5-3-3-3-3---
[ Tab from: ]
Note:* Harmonic (Hence the finger held lightly over fret.)

Brian's behind the bridge guitar solo:
C  -0-0-0-0-0-0-0-0-0-0-0-0-0-------------
C  -0-0-0-0-0-0-0-0-0-0-0-0-0-0-----------
G# -0-0-0-0-0-0-0-0-0-0-0-0-0---0---------
D# -0-0-0-0-0-0-0-0-0-0-0-0-0-------------
A# -0-0-0-0-0-0-0-0-0-0-0-0-0-------------
F  -0-0-0-0-0-0-0-0-0-0-0-0-0-------------
Related for Allergic tab