Song name
# A B C D E F G H I J K L M N O P Q R S T U V W X Y Z

Placebo - Evil Dildo tab

-------------------------------------------------------------------------------
			     EVIL DILDO - Placebo
-------------------------------------------------------------------------------
Tabbed by:Luis Gustavo Hernández Collado
Email:ltavo_87@hotmail.com

Tuning:DADGBe

Intro
e|----------------------------|
B|----------------------------|
G|----------------------------|X4
D|----------------------------|
A|-77777777-66-6/5/6-66666666-|
D|-0r-------------------------|

e|----------------------------------|
B|----------------------------------|
G|----------------------------------|X4
D|-99998r-88-689-9999-88-8/7/8-8888-|
A|-77777r-77----------66-6-6-6-6666-|
D|-0r-------------------------------|

e|-------------------------|
B|-------------------------|
G|-99999999-88888-88888888-|X2
D|-99999999-88878-88888888-|
A|-77777777-66666-66666666-|
D|-------------------------|

e|-------------------------|
B|-------------------------|
G|-99999999-88888-88888888-|X2
D|-99999999-88878-88888888-|
A|-77777777-66666-66666666-|
D|-00000000-00000-00000000-|

Verse 1
(Message 6 at 9:15 P.M....)
e|----------------------------------|
B|----------------------------------|
G|----------------------------------|X4
D|-99998r-88-689-9999-88-8/7/8-8888-|
A|-77777r-77----------66-6-6-6-6666-|
D|-0r-------------------------------|

Chorus 1
(Hey motherfucker, I'm after you ...)
e|-------------------------|
B|-------------------------|
G|-99999999-88888-88888888-|X2
D|-99999999-88878-88888888-|
A|-77777777-66666-66666666-|
D|-------------------------|

e|-------------------------|
B|-------------------------|
G|-99999999-88888-88888888-|X2
D|-99999999-88878-88888888-|
A|-77777777-66666-66666666-|
D|-00000000-00000-00000000-|

Verse 2
(Message 6 at 9:15 P.M....)
e|----------------------------------|
B|----------------------------------|
G|----------------------------------|X4
D|-99998r-88-689-9999-88-8/7/8-8888-|
A|-77777r-77----------66-6-6-6-6666-|
D|-0r-------------------------------|

Chorus 2
(Hey motherfucker, I'm after you ...)
e|-------------------------|
B|-------------------------|
G|-99999999-88888-88888888-|X2
D|-99999999-88878-88888888-|
A|-77777777-66666-66666666-|
D|-------------------------|

e|-------------------------|
B|-------------------------|
G|-99999999-88888-88888888-|X6
D|-99999999-88878-88888888-|
A|-77777777-66666-66666666-|
D|-00000000-00000-00000000-|

Outro
e|----------------------------------|
B|----------------------------------|
G|----------------------------------|X8
D|-99998r-88-689-9999-88-8/7/8-8888-|
A|-77777r-77----------66-6-6-6-6666-|
D|-0r-------------------------------|

e|------------|
B|------------|
G|-9-11-9-13r-|X4
D|-x-x--x-x---|
A|-7-9--7-11r-|
D|------------|
Tap to rate this tab
# A B C D E F G H I J K L M N O P Q R S T U V W X Y Z