Song name
# A B C D E F G H I J K L M N O P Q R S T U V W X Y Z

Placebo - Hang On To Your Iq tab

-----------------------------------------------------------------------------
			     Hang On To Your IQ - Placebo
-----------------------------------------------------------------------------
Tabbed by: Olive14
Email: olive14@u2.com

Tuning: EADGBB

Rythme figure 1

B|------0-0-------0-0-------0-------0-0-------0-0-------0-------------------|
B|0h2---2-0-0h2---2-0-0h2---0-0h2---2-0-0h2---2-0-0h2---0-------------------|
G|----1-2-2-----1-2-2-----1-1-----1-2-2-----1-2-2-----1-1s2-----------------|
D|------2-2-------2-2-------2-------2-2-------2-2-------2s3-----------------|
A|------0-0-------0-0-------2-------0-0-------0-0-------2s3-----------------|
E|--------------------------0---------------------------0c1-----------------|

"Bridge" ??

B|-12-15-12-/13-12-/13-12-15-12-/13-12-/13----------------------------------|
B|-12-15-12-/13-12-/13-12-15-12-/13-12-/13----------------------------------|
G|-11-11-11-/12-11-/12-11-11-11-/12-11-/12----------------------------------|
D|-10-10-10--10-10-10--10-10-10--10-10--10----------------------------------|
A|(0)(0)-(0)(0)(0)(0)-(0)(0)-(0)-(0)(0)(0)----------------------------------|
E|--------------------------------------------------------------------------|

Solo

B|--------------------------------------------------------------------------|
B|--------------------------------------------------------------------------|
G|-6-4-9-------7-11-9-7---7-13-11-14------------------(6)(6)(6)(6)----------|
D|-0-0-0-7-6-9-0-0--0-0-7-0-0--0--0--11-14-4-7-6-7-6-7-6--7--6--7-----------|
A|-------0-0-0----------0------------0--0--0-0-0-0-0-0-0--0--0--0-----------|
E|--------------------------------------------------------------------------|

I think it's about something like that !!!

Hope this will help...

Feel free to mail me for comments or something...

| /  slide up
| \  slide down
| h  hammer-on
| p  pull-off
| ~  vibrato
| +  harmonic
| x  Mute note
=============================================================================
Tap to rate this tab
# A B C D E F G H I J K L M N O P Q R S T U V W X Y Z