Song name
# A B C D E F G H I J K L M N O P Q R S T U V W X Y Z

Placebo - Lady Of The Flowers tab

PLACEBO - LADY OF THE FLOWERS

This is one of my favourite Placebo songs, the other tabs on here wernt quite right, and
didnt have the bass section (which can be played on guitar), so i decided to tab it
This tab is all for one guitar, with both bass and guitar parts in it. If you have an 
pedal it sounds great with phaser and light distortion

CAPO FIRST FRET - all tab positions are as normal, not relative to capo, so a 1 is an
string

INTRO; (bass tabbed for guitar)
e|----------------x~--|--------------------|----------------x~--|--------------------|
B|----------------x~--|--------------------|----------------x~--|--------------------|
G|----------------x~--|--------------------|----------------x~--|--------------------|
D|-----10--11-10~-x~--|-----10--11-10------|---------11-10~-x~--|-----10--11-10------|
A|---8------------x~--|---8-----------1~---|----------------x~--|---8------------1~--|
E|-9--------------x~--|-9------------------|----------------x~--|-9------------------|
                  ^strum the strings between the bridge and the body here

VERSE
e|----------8~---8-----------------8~------|
B|------9---1~-----9---------------1~---9~-|
G|-10---------------10--------10-----------|
D|-----------------------11----------------|
A|-----------------------------------------|
E|-----------------------------------------|

PRECHORUS
e|------------------------------------------|
B|----------------------------------------1~|
G|-11-11--10-10--11-11--10--10-10-11-10--10~|
D|-10-10--10-10--10-10--10--10-10-10-10--10~|
A|----------------------------------------1~|
E|------------------------------------------|

CHORUS
e|------------------------------------------------------|
B|-2-2--2-2--2-2--2--2-2-2-2----------------------------|
G|-3-3--1-1--3-3--1--1-1-3-1--6--6--6--6--6--6--6--6--6-|
D|-4-4--4-4--4-4--4--4-4-4-4--6--6--6--6--6--6--6--6--6-| x3
A|-4-4--4-4--4-4--4--4-4-4-4--4--4--4--4--4--4--4--4--4-|
E|------------------------------------------------------|


e|-------------------------------|
B|-2-2--2-2--2-2--2--2-2-2-2-----|
G|-3-3--1-1--3-3--1--1-1-3-1--6~-|
D|-4-4--4-4--4-4--4--4-4-4-4--6~-|
A|-4-4--4-4--4-4--4--4-4-4-4--4~-|
E|-------------------------------|

OUTRO; same as intro

thats it, its pretty easy to figure out the order and the number of times to play each
enjoy
any queries; whatshisface@hotmail.com
Tap to rate this tab
 
# A B C D E F G H I J K L M N O P Q R S T U V W X Y Z