Song name
# A B C D E F G H I J K L M N O P Q R S T U V W X Y Z

Placebo - Paycheck tab

STANDARD PLACEBO TUNING / PLACE CAPO ON FIRST FRET

MAIN RIFF

C  -----------------------------------------------------
C  -----------------------------------------------------
G# -9-X-9-9-9-X-9-9-9-X-14-14-14-X-14-14-X-12-11-7--9---
Eb -9-X-9-9-9-X-9-9-9-X-14-14-14-X-14-14-X-12-11-7--9---
Bb -7-X-7-7-7-X-7-7-7-X-12-12-12-X-12-12-X-10-9--5--7---
F  -----------------------------------------------------

"SLACKER..." BIT

C  --------------------------------------
C  --------------------------------------
G# -9-9-9-9-9-9-9------------------------
Eb -9-9-9-9-9-9-9-6-6-6-6--7-7-7-7-7-----
Bb -7-7-7-7-7-7-7-6-6-6-6--7-7-7-7-7-----
F  -0-0-0-0-0-0-0-4-4-4-4--5-5-5-5-5-----

"PAY CHECK" BIT

C  -X-X-X-9-9-X-X-X-9-9-8-10-10-10-10-10-X-X-X-9-9-X-X-9-9-8-12-12-12-12--
C  -X-X-X-9-9-X-X-X-9-9-8-10-10-10-10-10-X-X-X-9-9-X-X-9-9-8-12-12-12-12--
G# -----------------------------------------------------------------------
Eb -----------------------------------------------------------------------
Bb -----------------------------------------------------------------------
F  -----------------------------------------------------------------------

"SAVE THE BEST FOR LATER...."  BIT

C  ----------------0-------------------0------------------0---------------------------------0-
C  ----------------0-------------------0------------------0---------------------------------0-
G# -7--7--7-7-6-7--11--7--7--7-7-6-7---11--7--7--7-7-6-7--11-14 14 14 14 14----------------11-
Eb -0--0--0-0-0-0------0--0--0-0-0-0-------0--0--0-0-0-0---------------------0--0--0-0-0-0----
Bb -------------------------------------------------------------------------------------------
F  -------------------------------------------------------------------------------------------

OUTRO
C  -------------------------------------                                                                       
C  -------------------------------------
G# -9--9-9-9-8-4--2-3-5-6---------------
Eb -9--9-9-9-8-4--2-3-5-6---------------
Bb -7--7-7-7-6-2--0-1-3-4---------------
F  -------------------------------------
Tap to rate this tab
# A B C D E F G H I J K L M N O P Q R S T U V W X Y Z