Song name
# A B C D E F G H I J K L M N O P Q R S T U V W X Y Z

Placebo - Passive Aggressive tab

-------------------------------|
passive aggressive-by placebo--|
Tabbed by: Matt :D
Email: surferxx0@aol.com

Tuning: Standard

Hope you enjoy :)
took a while:P
please email with any comments...

Verse:
e|-x-x-x-x-x-x-x-x-x-x--x-x-x-x---x-x-x-x-x-x-x-6-----------------------------|
B|-6-6-6-6-6-4-6-9--6-4-4-6-6-4---6-6-6-6-6-4-6-8-----------------------------|
G|-8-8-8-8-8-6-8-11-8-6-6-8-8-6---8-8-8-8-8-6-8-8-----------------------------|
D|-8-8-8-8-8-6-8-11-8-6-6-8-8-6---8-8-8-8-8-6-8-8-----------------------------|
A|----------------------------------------------------------------------------|
E|----------------------------------------------------------------------------|

Chorus:
e|-----7-7-7-7-7-9--7-6-----------------------------------------------------|
B|-----9-9-9-9-9-10-9-8-----------------------------------------------------|
G|-----9-9-9-9-9-10-9-8-----x2----------------------------------------------|
D|--------------------------------------------------------------------------|
A|--------------------------------------------------------------------------|
E|--------------------------------------------------------------------------|


************************************

| /   slide up
| \   slide down
| h   hammer-on
| p   pull-off
| ~   vibrato
| +   harmonic
| x   Mute note
| b   Bend
| pb  Pre-bend
| br  Bend release
| pbr Pre-bend release
| brb Bend release bend

************************************
Tap to rate this tab
 
# A B C D E F G H I J K L M N O P Q R S T U V W X Y Z