Song name
# A B C D E F G H I J K L M N O P Q R S T U V W X Y Z

Placebo - B3 tab

Song: B3
Band: Placebo
Taken from B3 EP
**Standard Placebo Tuning**


Intro:

Amount of times to pick each string is not stated.
E--------------------------|
B-10101010/13\10101010/9---|
G--------------------------|
D--------------------------|
A--------------------------|
E--------------------------|

Guitar 1 Intro:
E-------------------------------------|
B-------------------------------------|
G-1414/17/14/13--------------13/12----|
D-x-x-/x-x/x/x---------------x-/x-----|
A-1212/15/12/11-2nd time add-11/10----|
E-------------------------------------|
End on:
E---------------|
B---------------|
G-1313/1210~----|
D-X-x-/x-x------|
A-1111/10-8~----|
E---------------|


Verse 2 add on:
E-----------------------|
B------16---------------|
G--14-------------------|
D-----------------------|
A-----------------------|
E-----------------------|


Chorus: " passion flower"
E--------------------------------|
B--------------------------------|
G-3x3/7-8-10-3-10--15-14---------|
D-xxx/x-x-x-x-x--x-x-------------|
A-1x1/5-6-8-1-8-13-12------------|
E--------------------------------|
Back to intro riff.
Tap to rate this tab
 
# A B C D E F G H I J K L M N O P Q R S T U V W X Y Z