Song name
# A B C D E F G H I J K L M N O P Q R S T U V W X Y Z

Placebo - Teenage Angst tab

Toda la cancion, por lo menos a mi parecer, se toca con distorsion

Intro:

e|--------------|
B|--------------|
G|--------------|
D|-3-3-3--------| [x4]
A|-------1-1111-|
E|--------------|

... Shine the headlight, straight into my eyes...
e|--------------|
B|--------------|
G|--------------|
D|-3-3-3--------| [x4]
A|-------1-1111-|
E|--------------|


... You see through my disguise
e|---------------------------------------------------|
B|---------------------------------------------------|
G|-7-7-7-5-5555-7-7-7-5-1----------------------------|
D|---------------------------------------------------|
A|------------------------1-1-1-1-1111-1-1-1-1-1111--|
E|---------------------------------------------------|


... At the drive-in, double feature...
e|--------------|
B|--------------|
G|--------------|
D|-3-3-3--------| [x4]
A|-------1-1111-|
E|--------------|


... And say your last goodbyes
e|---------------------------------------------------|
B|---------------------------------------------------|
G|-7-7-7-5-5555-7-7-7-5-1----------------------------|
D|---------------------------------------------------|
A|------------------------1-1-1-1-1111-1-1-1-1-1111--|
E|---------------------------------------------------|


 G5                  F5         A#5
Since I was born, I started to decay
    G5            F5           A#5
Now nothin' ever, ever goes my way


... One fluid gesture, like stepping back in time...
e|--------------|
B|--------------|
G|--------------|
D|-3-3-3--------| [x4]
A|-------1-1111-|
E|--------------|


... and still not satisfied
e|---------------------------------------------------|
B|---------------------------------------------------|
G|-7-7-7-5-5555-7-7-7-5-1----------------------------|
D|---------------------------------------------------|
A|------------------------1-1-1-1-1111-1-1-1-1-1111--|
E|---------------------------------------------------|


... Airs and social graces, elocution so divine...
e|--------------|
B|--------------|
G|--------------|
D|-3-3-3--------| [x4]
A|-------1-1111-|
E|--------------|


... both spineless and sublime
e|---------------------------------------------------|
B|---------------------------------------------------|
G|-7-7-7-5-5555-7-7-7-5-1----------------------------|
D|---------------------------------------------------|
A|------------------------1-1-1-1-1111-1-1-1-1-1111--|
E|---------------------------------------------------|


 G5                  F5         A#5
Since I was born, I started to decay
    G5            F5           A#5
Now nothin' ever, ever goes my way


[end]
e|--------------|
B|--------------|
G|--------------|
D|-3-3-3--------| [x4]
A|-------1-1111-|
E|--------------|

e|---------------------------------------------------|
B|---------------------------------------------------|
G|-7-7-7-5-5555-7-7-7-5-1----------------------------|
D|---------------------------------------------------|
A|------------------------1-1-1-1-1111-1-1-1-1-1111--|
E|---------------------------------------------------|

e|--------------|
B|--------------|
G|--------------|
D|-3-3-3--------| [x4]
A|-------1-1111-|
E|--------------|

e|---------------------------------------------------|
B|---------------------------------------------------|
G|-7-7-7-5-5555-7-7-7-5-1----------------------------|
D|---------------------------------------------------|
A|------------------------1-1-1-1-1111-1-1-1-1-1111--|
E|---------------------------------------------------|

E|--------------------------------------------------------|
B|--------------------------------------------------------|
G|-----------------3-3-3-3-3-3-3-3-3-3-----------------3~-|
D|-5-5-5-5-3-3-3-3-3-3-3-3-3-3-3-3-3-3-5-5-5-5-3-3-3-3-3~-|
A|-5-5-5-5-3-3-3-3-1-1-1-1-1-1-1-1-1-1-5-5-5-5-3-3-3-3-1~-|
E|-3-3-3-3-1-1-1-1---------------------3-3-3-3-1-1-1-1----|
Tap to rate this tab
 
# A B C D E F G H I J K L M N O P Q R S T U V W X Y Z