Song name
# A B C D E F G H I J K L M N O P Q R S T U V W X Y Z

Placebo - This Picture tab

Intro: bass.

Verse: Played on Weird synth guitar/keyboard.
e|-----------------|-----------------|-------------------|------------|
B|-----------------|-----------------|-------------------|------------|
G|------------3----|-----------------|--------3-0-5------|------------|
D|-8-6-8-8-3-----3-|-8-6-8-8-3-4-3---|-8-6-8---------6-3-|-3-4--6-4-3-|
A|-----------------|-----------------|-------------------|------------|
E|-----------------|-----------------|-------------------|------------|
Farewell the ashtray girl...you miss her picture
chorus
e|-----------------------------------------------------|
B|-----------------------------------------------------|
G|---------------------------6-6-6-6-6-6-6-6-6-6-6-6-6-|
D|-4-4-4-4-4-4-4-4-4-4-4-4-4-6-6-6-6-6-6-6-6-6-6-6-6-6-|x4
A|-4-4-4-4-4-4-4-4-4-4-4-4-4-4-4-4-4-4-4-4-4-4-4-4-4-4-|
E|-2-2-2-2-2-2-2-2-2-2-2-2-2---------------------------|
Sometimes it's faded...the fear of growing old

Verse
Chorus

Bridge
 x16 x16
|-------|
|-------|
|----10-|
|-8--10-|
|-8---8-|
|-6-----|
Hang on...

Guitar 2 over last chorus.

|---------------------|
|---------------------|
|-13-13-13-13-13-15---|
|------------------15-|
|---------------------|
|---------------------|
Tap to rate this tab
# A B C D E F G H I J K L M N O P Q R S T U V W X Y Z