Song name
# A B C D E F G H I J K L M N O P Q R S T U V W X Y Z

Placebo - Plasticine tab

VERSE 1

e|-----------------------------------------------------------------|
B|-----------------------------------------------------------------|
G|-5-5-5-5-5-5-5-5-5-5-5-5-5-5-5-5---------------------------------|
D|-5-5-5-5-5-5-5-5-4-4-4-4-4-4-4-4-7-7-7-7-7-7-7-9-9-9-9-9-9-9-9-9-|
A|-3-3-3-3-3-3-3-3-3-3-3-3-3-3-3-3-7-7-7-7-7-7-7-7-7-7-7-7-7-7-7-7-|
E|---------------------------------5-5-5-5-5-5-5-5-5-5-5-5-5-5-5-5-|
         Beauty    Lies inside the eye

e|-----------------------------------------------------------------|
B|-----------------------------------------------------------------|
G|-5-5-5-5-5-5-5-5-5-5-5-5-5-5-5-5---------------------------------|
D|-5-5-5-5-5-5-5-5-4-4-4-4-4-4-4-4-7-7-7-7-7-7-7-7-7-9-9-9-9-9-9-9-|
A|-3-3-3-3-3-3-3-3-3-3-3-3-3-3-3-3-7-7-7-7-7-7-7-7-7-7-7-7-7-7-7-7-|
E|---------------------------------5-5-5-5-5-5-5-5-5-5-5-5-5-5-5-5-|
       Of another youthful                 Dream

e|-------------------------|
B|-------------------------|
G|-10-10-10-10-10-10-10-10-|
D|-10-10-10-10-10-10-10-10-|
A|-8--8--8--8--8--8--8--8--|
E|-------------------------|
  That          doesn't

e|-------------------------|
B|-------------------------|
G|-10-10-10-10-10-10-10-10-|
D|-10-10-10-10-10-10-10-10-|
A|-8--8--8--8--8--8--8--8--|
E|-------------------------|
   Sell its soul for

e|-5-5-5-5-5-5-5-5-7-7-7-7-7-7-7-7-----5-5-5-5-5-5-5-5-|
B|-x-x-x-x-x-x-x-x-x-x-x-x-x-x-x-x-----5-5-5-5-5-5-5-5-|
G|-7-7-7-7-7-7-7-7-9-9-9-9-9-9-9-9-----5-5-5-5-5-5-5-5-|
D|-7-7-7-7-7-7-7-7-9-9-9-9-9-9-9-9---------------------|
A|-----------------------------------------------------|
E|-----------------------------------------------------|
   sel  -    f e-s-teem    That's not           Plasti-

e|-5-5-5-5-5-5-5-5-5-5-5-5-5-5-5-5-|
B|-6-6-6-6-6-6-6-6-6-6-6-6-6-6-6-6-|
G|-5-5-5-5-5-5-5-5-5-5-5-5-5-5-5-5-|
D|---------------------------------|
A|---------------------------------|
E|---------------------------------|
  -cine

VERSE 2

e|-----------------------------------------------------------------|
B|-----------------------------------------------------------------|
G|-5-5-5-5-5-5-5-5-5-5-5-5-5-5-5-5---------------------------------|
D|-5-5-5-5-5-5-5-5-4-4-4-4-4-4-4-4-7-7-7-7-7-7-7-9-9-9-9-9-9-9-9-9-|
A|-3-3-3-3-3-3-3-3-3-3-3-3-3-3-3-3-7-7-7-7-7-7-7-7-7-7-7-7-7-7-7-7-|
E|---------------------------------5-5-5-5-5-5-5-5-5-5-5-5-5-5-5-5-|
         Beauty    Lies inside de- sire

e|-------------------------------------------------------------------|
B|-------------------------------------------------------------------|
G|-5-5-5-5-5-5-5-5-5-5-5-5-5-5-5-5-----------------------------------|
D|-5-5-5-5-5-5-5-5-4-4-4-4-4-4-4-4---7-7-7-7-7-7-7-7-7-9-9-9-9-9-9-9-|
A|-3-3-3-3-3-3-3-3-3-3-3-3-3-3-3-3---7-7-7-7-7-7-7-7-7-7-7-7-7-7-7-7-|
E|-----------------------------------5-5-5-5-5-5-5-5-5-5-5-5-5-5-5-5-|
       and every wayward heart  re-          deemed

e|-------------------------|
B|-------------------------|
G|-10-10-10-10-10-10-10-10-|
D|-10-10-10-10-10-10-10-10-|
A|-8--8--8--8--8--8--8--8--|
E|-------------------------|
  That          doesn't

e|-------------------------|
B|-------------------------|
G|-10-10-10-10-10-10-10-10-|
D|-10-10-10-10-10-10-10-10-|
A|-8--8--8--8--8--8--8--8--|
E|-------------------------|
   Sell its soul for

e|-5-5-5-5-5-5-5-5-7-7-7-7-7-7-7-7-----5-5-5-5-5-5-5-5-|
B|-x-x-x-x-x-x-x-x-x-x-x-x-x-x-x-x-----5-5-5-5-5-5-5-5-|
G|-7-7-7-7-7-7-7-7-9-9-9-9-9-9-9-9-----5-5-5-5-5-5-5-5-|
D|-7-7-7-7-7-7-7-7-9-9-9-9-9-9-9-9---------------------|
A|-----------------------------------------------------|
E|-----------------------------------------------------|
   sel  -    f e-s-teem    That's not           Plasti-

e|-5-5-5-5-5-5-5-5-5-5-5-5-5-5-5-5-|
B|-6-6-6-6-6-6-6-6-6-6-6-6-6-6-6-6-|
G|-5-5-5-5-5-5-5-5-5-5-5-5-5-5-5-5-|
D|---------------------------------|
A|---------------------------------|
E|---------------------------------|
  -cine
                                                              
CHORUS
                                                            4x
e|| --------------------------------------------------------||
B||:-------------------------------------------------------:||
G|| --------------------------------------------------------||
D|| --------------------------------------------------------|| 
A||:-0-3---------------------------------------------------:||
E|| ------5-----3----3-5--5--3---3---5----------------------||
          don't forget to be the way you are

VERSE 3

e|-----------------------------------------------------------------|
B|-----------------------------------------------------------------|
G|-5-5-5-5-5-5-5-5-5-5-5-5-5-5-5-5---------------------------------|
D|-5-5-5-5-5-5-5-5-4-4-4-4-4-4-4-4-7-7-7-7-7-7-7-9-9-9-9-9-9-9-9-9-|
A|-3-3-3-3-3-3-3-3-3-3-3-3-3-3-3-3-7-7-7-7-7-7-7-7-7-7-7-7-7-7-7-7-|
E|---------------------------------5-5-5-5-5-5-5-5-5-5-5-5-5-5-5-5-|
       The only thing you can re-  ly                on

e|-------------------------------------------------------------------|
B|-------------------------------------------------------------------|
G|-5-5-5-5-5-5-5-5-5-5-5-5-5-5-5-5-----------------------------------|
D|-5-5-5-5-5-5-5-5-4-4-4-4-4-4-4-4---7-7-7-7-7-7-7-7-7-9-9-9-9-9-9-9-|
A|-3-3-3-3-3-3-3-3-3-3-3-3-3-3-3-3---7-7-7-7-7-7-7-7-7-7-7-7-7-7-7-7-|
E|-----------------------------------5-5-5-5-5-5-5-5-5-5-5-5-5-5-5-5-|
       is that you can't rely on             anything

e|-------------------------|
B|-------------------------|
G|-10-10-10-10-10-10-10-10-|
D|-10-10-10-10-10-10-10-10-|
A|-8--8--8--8--8--8--8--8--|
E|-------------------------|
         Don't go and

e|-------------------------|
B|-------------------------|
G|-10-10-10-10-10-10-10-10-|
D|-10-10-10-10-10-10-10-10-|
A|-8--8--8--8--8--8--8--8--|
E|-------------------------|
   Sell your soul for

e|-5-5-5-5-5-5-5-5-7-7-7-7-7-7-7-7-----5-5-5-5-5-5-5-5-|
B|-x-x-x-x-x-x-x-x-x-x-x-x-x-x-x-x-----5-5-5-5-5-5-5-5-|
G|-7-7-7-7-7-7-7-7-9-9-9-9-9-9-9-9-----5-5-5-5-5-5-5-5-|
D|-7-7-7-7-7-7-7-7-9-9-9-9-9-9-9-9---------------------|
A|-----------------------------------------------------|
E|-----------------------------------------------------|
   sel  -    f e-s-teem    That's not           Plasti-

e|-5-5-5-5-5-5-5-5-5-5-5-5-5-5-5-5-|
B|-6-6-6-6-6-6-6-6-6-6-6-6-6-6-6-6-|
G|-5-5-5-5-5-5-5-5-5-5-5-5-5-5-5-5-|
D|---------------------------------|
A|---------------------------------|
E|---------------------------------|
  -cine
                                                            
CHORUS
                                                            4x
e|| --------------------------------------------------------||
B||:-------------------------------------------------------:||
G|| --------------------------------------------------------||
D|| --------------------------------------------------------|| 
A||:-0-3---------------------------------------------------:||
E|| ------5-----3----3-5--5--3---3---5----------------------||
        don't forget to be the way you are

 BRIDGE
       1,2,3
       ________________________________________________________________
e||   | 2-2-2-2-2-2-2-2-4-4-4-4-4-4-4-4-4-4-4-4-4-4-4-4-2-2-2-2-2-2-2-2 ||
B||:  | 2-2-2-2-2-2-2-2-2-2-2-2-2-2-2-2-3-3-3-3-3-3-3-3-3-3-3-3-3-3-3-3:||
G||   | 2-2-2-2-2-2-2-2-2-2-2-2-2-2-2-2-2-2-2-2-2-2-2-2-2-2-2-2-2-2-2-2 ||
D||   | --------------------------------------------------------------- ||
A||:  | ---------------------------------------------------------------:||
E||   | --------------------------------------------------------------- ||

 4
  _________________________________________________________________
 | 2-2-2-2-2-2-2-2-4-4-4-4-4-4-4-4-4-4-4-4-4-4-4-4-5-5-5-5-5-5-5-5 ||
 | 2-2-2-2-2-2-2-2-2-2-2-2-2-2-2-2-3-3-3-3-3-3-3-3-3-3-3-3-3-3-3-3:||
 | 2-2-2-2-2-2-2-2-2-2-2-2-2-2-2-2-2-2-2-2-2-2-2-2-2-2-2-2-2-2-2-2 ||
 | --------------------------------------------------------------- ||
 | ---------------------------------------------------------------:||
 | --------------------------------------------------------------- ||

 
LAST CHORUS
                                                            4x
e|| --------------------------------------------------------||
B||:-------------------------------------------------------:||
G|| --------------------------------------------------------||
D|| --------------------------------------------------------|| 
A||:-0-3---------------------------------------------------:||
E|| ------5-----3----3-5--5--3---3---5----------------------||
        don't forget to be the way you are

                                                                  4x
e|| ------------------------------------------------------------- ||
B||:-------------------------------------------------------------:||
G|| ------------------------------------------------------------- ||
D|| ----------------------------3-3-3-3-3-3-3-3-4-4-4-4-4-4-4-4-- || 
A||:-10\7-7---7-7--10\7-7---7-7-3-3-3-3-3-3-3-3-5-5-5-5-5-5-5-5--:||
E|| -8-\5-5---5-5--8-\5-5---5-5-1-1-1-1-1-1-1-1-2-2-2-2-2-2-2-2-- ||  
                                                     The way you     are 





Tap to rate this tab
 
# A B C D E F G H I J K L M N O P Q R S T U V W X Y Z