Song name
# A B C D E F G H I J K L M N O P Q R S T U V W X Y Z

Placebo - Running Up That Hill Acoustic chords

Highlighted       Show chord diagrams
Ths is a simple version of whats already been tabbed so credit the other tabbers please :) enjoy!

Tuning:EADGBe capo 3rd

e-------------------------------------------------------------------|
B----11--8------11--8-----------------------------------------------|
G--------------------------------------8----------------------------|
D-----------10---------10-------8--10-------------------------------|
A-------------------------------------------------------------------|
E-------------------------------------------------------------------|

e-------------------------------------------------------------------|
B---11--------11-------8--------------------------------------------|
G--------------------------10---8-----------------------------------|
D------10--------10-----------------10------------------------------|
A-------------------------------------------------------------------|
E-------------------------------------------------------------------|



VERSE:
Am
It doesn't hurt me.
Am
You wanna feel how it feels? 
Am
You wanna know, know that it doesn't hurt me? 
Am
You wanna hear about the deal I'm making? 
F     G    Am
You 
F     G    Am
You and me 



CHORUS:
F
And if I only could, 
G
Make a deal with God, 
Am
And get him to swap our places, 
                    F 
Be running up that road, 
                    G
Be running up that hill,
                    Am
Be running up that building.
            F   G        Am
If I only could, oh... 


BRIDGE:
F          G
'C'mon, baby, c'mon, c'mon, darling,
Am
Let me steal this moment from you now.
F            G
C'mon, angel, c'mon, c'mon, darling,
Am
Let's exchange the experience, oh...' 
Tap to rate this tab
# A B C D E F G H I J K L M N O P Q R S T U V W X Y Z