Song name
# A B C D E F G H I J K L M N O P Q R S T U V W X Y Z

Placebo - Ikwyl tab

Song: I.K.W.Y.L. aka "I Know Where You Live"
Artist: Placebo
Album: B3 EP (2012)

The other tab on UG is not 100% correct to me.
And here is the tab with a standard tuning.


Riff 1
       Fm                                 C#    
e|----------------------------------------------------------------------------|
b|----9-9-8-----------9-9-8--------------9-9-8------------9-9-8---------------|
g|----------10-10-10----------10-10-10----------------------------------------|
d|----------////////----------////////-----------11-11-11----------11-11-11---|
a|-----------------------------------------------////////----------////////---|
e|----------------------------------------------------------------------------|


Riff2 (play it with a constant fast tremolo picking)
     Fm
e|-------------------------------------------------|
b|---13-16-9-13-18-18b-18b-13-16-9-13--------------|
g|--------------//////////------------10-10-10-----|
d|------------------------------------////////-----|
a|-------------------------------------------------|
e|-------------------------------------------------|


Chords
A# G# A# G# x2


Chords + Riff2
Fm Fm G# A# x2


End on Fm



Order
0:14 Riff 1
1:49 Riff 2
2:03 Riff 1
3:22 Riff 2
3:54 Chords
4:25 Chords + Riff2
4:56 End

Nice song which deserves a better place than to be on an EP!
Tap to rate this tab
 
# A B C D E F G H I J K L M N O P Q R S T U V W X Y Z