Song name
# A B C D E F G H I J K L M N O P Q R S T U V W X Y Z

Placebo - Loud Like Love tab

-----------------------------------------------------------------------------
                             LOUD LIKE LOVE - Placebo
-----------------------------------------------------------------------------
Tabbed by: Alfie Prior
E-mail: kidneyfeet@gmail.com

Placebo tune up half a step (F A# D# G# C f), I put a capo on the first fret. 

Intro:

Guitar 1
f |-------------------------------------------------------------------------|
C |------0---------0------0---------0------0---------0------0---------0-----|
G#|-----2--------2-------2--------2-------2--------2-------2--------2-------|
D#|----------3-33----3-3----------------------------------------0-00--------|
A#|-3-3-----------------------3-33------------------------------------------|
F |-----------------------------------3-3------3-33----3-3------------------|

Guitar 2 alternates between C# and G# power chords starting on G# at bar 12

Verse: "Love on an atom..."

Same as intro but Guitar 2 only plays once every four bars

Pre-chorus 1: "For all of our youth..."

Guitar 1 + 2
f |-2-2-2-2-2-2-2-3-2-2-2-2-2-2-2-3-0-0-0-0-0-0-0-0-0-0-0-0-0-0-0-0---------|
C |-3-3-3-3-3-3-3-3-3-3-3-3-3-3-3-3-1-1-1-1-1-1-1-1-1-1-1-1-1-1-1-1---------|
G#|-2-2-2-2-2-2-2-2-2-2-2-2-2-2-2-2-0-0-0-0-0-0-0-0-0-0-0-0-0-0-0-0---------|
D#|-0-0-0-0-0-0-0-0-0-0-0-0-0-0-0-0-2-2-2-2-2-2-2-0-2-2-2-2-2-2-2-0---------|
A#|---------------------------------3-3-3-3-3-3-3-3-3-3-3-3-3-3-3-3---------|
F |-------------------------------------------------------------------------|

Chorus: "Breath..."

Same as intro

[Play verse again]

Pre-chorus 2: "For all of our youth..."

Guitars 1 + 2 are the same until bar 16 where guitar 1 plays this:
f |-------------------------------------------------------------------------|
C |-------------------------------------------------------------------------|
G#|------------4---------------------------2--------------------------------|
D#|----------47-7777777777777777---------25-5555555555555555----------------|
A#|-555555557-------------------333333335-----------------------------------|
F |-------------------------------------------------------------------------|

Chorus/Outro: "We are loud like love"

Guitar 2 is the same as in the intro. In the loud part, Guitar 1 plays this:
f |-7-----10-7-------7-------7-------7-----8-7-------7-----8-7--------------|
C |----8--------8-------8-------8-------8-------8-------8-------8-----------|
G#|------------------------7------------------------------------------------|
D#|-------------------------------------------------------------------------|
A#|-------------------------------------------------------------------------|
F |-------------------------------------------------------------------------|



************************************

| /   slide up
| \   slide down
| h   hammer-on
| p   pull-off
| ~   vibrato
| +   harmonic
| x   Mute note
| b   Bend
| pb  Pre-bend
| br  Bend release
| pbr Pre-bend release
| brb Bend release bend

************************************
Tap to rate this tab
# A B C D E F G H I J K L M N O P Q R S T U V W X Y Z