Song name
# A B C D E F G H I J K L M N O P Q R S T U V W X Y Z

Placebo - Hold On To Me tab

Song: Hold on to me
Artist: Placebo
Album: Loud Like Love
Year: 2013



0:10 Intro
e|----1----1---1-|-----1---1---1---1----||
b|--4----1---2---|---4-------2---2------||
g|---------------|-------3--------------||
d|---------------|----------------------||
a|---------------|----------------------||
e|---------------|----------------------||
               x4|


0:21 Verse
e|----1----1---1--|----1---1---1---1--||
b|--4----1---2----|--4-------2---2----||
g|----------------|------3------------||
d|----------------|-------------------|| x4
a|----------------|-------------------||
e|----------------|-------------------||
                x4|


1:02 Chorus (play it only once the first time)
e|-------------------------------------------------------------------------||
b|------6------6---6-------4-----4---4-----4-----4---4------2-----2---2----||
g|----6------6-----------5-----5---------3-----3----------3-----3----------||
d|--8------8-----8-----6-----6-----6---4-----4-----4----4-----4-----4------||
a|-------------------------------------------------------------------------||
e|-------------------------------------------------------------------------||


1:12 Verse

1:54 Chorus x2


2:16 Riff
e|---1-----------------------------||
b|-------4---2---4-----------------||
g|-----3---3---3---3---------------||
d|---------------------------------||
a|---------------------------------||
e|---------------------------------||


2:57 Orchestral break (some line is doing this)
e|------------------------------------||
b|--3---1-----------------------------||
g|-----------3----0-------------------||
d|---------------------3----0---------||
a|------------------------------------||
e|------------------------------------||


3:18 Riff


4:00 "Slide" Solo
e|--------------------------------------||
b|--------------------------------------||
g|---15----17-13-----15-6-----8-10------||
d|--------------------------------------||
a|--------------------------------------||
e|--------------------------------------||


The timing for this song is a little difficult, but, if you follow what is written, it 
should be ok.
I'm not sure that they all those notes on the chorus, but this notes sounds well.
Favorite song for this album.
beranger80@hotmail.com
Tap to rate this tab
# A B C D E F G H I J K L M N O P Q R S T U V W X Y Z