Song name
# A B C D E F G H I J K L M N O P Q R S T U V W X Y Z

Placebo - Begin The End tab

C -------10--10--------10--10--------10--10--------10--10---|
C -----10------10----10--10--10----10------10----10--10--10-|
G#-------------------------------------------10-------------|
Eb-8-------------8-------------8----------------------------|
Bb----------------------------------------------------------|
F ----------------------------------------------------------|

C -------10--10--------10--10--------10--10--------10--10---|
C -----10------10----10--10--10----10------10----10--10--10-|
G#-0-------------0-------------0-------------7--------------|
Eb----------------------------------------------------------|
Bb----------------------------------------------------------|
F ----------------------------------------------------------|
Tap to rate this tab
 
# A B C D E F G H I J K L M N O P Q R S T U V W X Y Z