Song name
# A B C D E F G H I J K L M N O P Q R S T U V W X Y Z

Placebo - I Know tab

"I Know" by Placebo, album: "Placebo"

Verse:

Guitar 1

E|--------------------|-------------------|-------------------|--------------------|
B|--------------------|-------------------|-4--4-4--4--4-4--4-|-4--4-4--3--3-3--3--|
G|--5--5-5--5--5-5--5-|-5--5-5--5--5-5--5-|-5--5-5--5--5-5--5-|-5--5-5--5--5-5--5--|
D|--6--6-6--6--6-6--6-|-5--5-5--5--5-5--5-|-5--5-5--5--5-5--5-|-5--5-5--5--5-5--5--|
A|--6--6-6--6--6-6--6-|-5--5-5--5--5-5--5-|-3--3-3--3--3-3--3-|-3--3-3--3--3-3--3--|
E|--4--4-4--4--4-4--4-|-3--3-3--3--3-3--3-|-------------------|--------------------|

Guitar 2

E|--------------------|-------------------|-------------------|--------------------|
B|--4--4-4--6---------|-6--6-6--8---------|-1--1-1--3---------|-4--4-4--3--1-------|
G|--------------------|-------------------|-------------------|--------------------|
D|--------------------|-------------------|-------------------|--------------------|
A|--------------------|-------------------|-------------------|--------------------|
E|--------------------|-------------------|-------------------|--------------------|

Pre-Chorus:

Guitar 2

E|-----------------------------------------------|
B|--3--4--1--3--4--1-----3--4--1-----3--4--1-----|
G|--------------------0-----------0-----------0--|
D|-----------------------------------------------|
A|-----------------------------------------------|
E|-----------------------------------------------|

Chorus:

Guitar 1

E|--------------------|-------------------|-------------------|--------------------|
B|--------------------|-------------------|-------------------|--------------------|
G|--------------------|-------------------|-5--5-5--5--5-5--5-|-5--5-5--5--5-5--5--|
D|--6--6-6--6--6-6--6-|-5--5-5--5--5-5--5-|-5--5-5--5--5-5--5-|-5--5-5--5--5-5--5--|
A|--6--6-6--6--6-6--6-|-5--5-5--5--5-5--5-|-3--3-3--3--3-3--3-|-3--3-3--3--3-3--3--|
E|--4--4-4--4--4-4--4-|-3--3-3--3--3-3--3-|-------------------|--------------------|

Guitar 2

E|--------------------|-------------------|----------8----6---|--------------------| 
B|--------------------|-------------------|-------------------|-----------6-8------|
G|--5-----------------|-7-----------------|-8-----------------|--------------------|
D|--------------------|-------------------|-------------------|--------------------|
A|--------------------|-------------------|-------------------|--------------------|
E|--------------------|-------------------|-------------------|--------------------|

E|----------------------|
B|--6-8--6-8--6-8--6-8--|
G|----------------------|
D|----------------------|
A|----------------------|
E|----------------------|

Interlude:

Guitar 1

E|-----------------------|----------------------|----------------------|-----------------------|
B|-----------------------|----------------------|----------------------|-----------------------|
G|--8--8--8-/10-10-10-10-|-10-10-10/12-12-12-12-|-5--5--5-/7--7--7--7--|-8--8--8--7--7--7--\5--|
D|--8--8--8-/10-10-10-10-|-10-10-10/12-12-12-12-|-5--5--5-/7--7--7--7--|-8--8--8--7--7--7--\5--|
A|--6--6--6-/8--8--8--8--|-8--8--8-/10-10-10-10-|-3--3--3-/5--5--5--5--|-6--6--6--5--5--5--\3--|
E|-----------------------|----------------------|----------------------|-----------------------|

Guitar 2

E|-----------------------|----------------------|----------------------|-----------------------|
B|--4--4-4--6------------|-6--6-6--8------------|-1--1-1--3------------|-4--4-4--3--1----------|
G|-----------------------|----------------------|----------------------|-----------------------|
D|-----------------------|----------------------|----------------------|-----------------------|
A|-----------------------|----------------------|----------------------|-----------------------|
E|-----------------------|----------------------|----------------------|-----------------------|

Guitar 1

E|-----------------------|----------------------|----------------------|-----------------------|
B|-----------------------|----------------------|----------------------|-----------------------|
G|--8--8--8-/10-10-10-10-|-10-10-10/12-12-12-12-|-15-14-14-14-14-14-14-|-14-14-14-14-14-14-14--|
D|--8--8--8-/10-10-10-10-|-10-10-10/12-12-12-12-|-15-14-14-14-14-14-14-|-14-14-14-14-14-14-14--|
A|--6--6--6-/8--8--8--8--|-8--8--8-/10-10-10-10-|-13-12-12-12-12-12-12-|-12-12-12-12-12-12-12--|
E|-----------------------|----------------------|----------------------|-----------------------|

Outro:

Guitar 1

E|--------------------|-------------------|-------------------|--------------------|
B|--------------------|-------------------|-4--4-4--4--4-4--4-|-4--4-4--3--3-3--3--|
G|--5--5-5--5--5-5--5-|-5--5-5--5--5-5--5-|-5--5-5--5--5-5--5-|-5--5-5--5--5-5--5--|
D|--6--6-6--6--6-6--6-|-5--5-5--5--5-5--5-|-5--5-5--5--5-5--5-|-5--5-5--5--5-5--5--|
A|--6--6-6--6--6-6--6-|-5--5-5--5--5-5--5-|-3--3-3--3--3-3--3-|-3--3-3--3--3-3--3--|
E|--4--4-4--4--4-4--4-|-3--3-3--3--3-3--3-|-------------------|--------------------|

So, that is the way I play it
If you have any idea to improve the tab let me know
I hope I've helped you
Thank you!!!
Tap to rate this tab
 
# A B C D E F G H I J K L M N O P Q R S T U V W X Y Z