Song name
# A B C D E F G H I J K L M N O P Q R S T U V W X Y Z

Placebo - Bosco tab

Song: Bosco
Artist: PLACEBO
Album: Loud Like Love
Track: 10
Tuning: E A D G B e

Symbol's Legend:
=    Let ring
(#)  Ghost note

The numbers above every tabulature are just defining clearly how long to play the
notes (: Hope everyone understands, it's pretty easy I think :)

Intro - Piano

    1  2  3  4  5  6  7  8  9  10  11  12  13  14  15  16
E | ------------------------------------------------------- |
B | ------------------------------------------------------- |
G | 11===-10==============================================- |
D | ---------------8-----8-----8-------8------------------- |
A | ------------9-----9-----9------9-------9==============- |
E | ------------------------------------------------------- |

    1  2  3  4  5  6  7  8  9  10  11  12  13  14  15  16
E | ------------------------------------------------------- |
B | ------------------------------------------------------- |
G | 11===-10==============================================- |
D | ---------------8-----8-----8-------8------------------- |
A | ------------9-----9-----9------9-------9==============- |
E | ------------------------------------------------------- |

    1  2  3  4  5  6  7  8  9  10  11  12  13  14  15  16
E | ------------------------------------------------------- |
B | ------------------------------------------------------- |
G | 11===-10-------8-----8-----8-------8-------8-------8--- |
D | ------------------------------------------------------- |
A | ------------9-----9-----9------9-------9-------9------- |
E | ------------------------------------------------------- |

    1  2  3  4  5  6  7  8  9  10  11  12  13  14  15  16
E | ------------------------------------------------------- |
B | ------------------------------------------------------- |
G | ---------------8-----8-----8-------8-------8-------8--- |
D | ------------------------------------------------------- |
A | (9--9--9--9)9-----9-----9------9-------9-------9------- |
E | ------------------------------------------------------- |

Repeat those pretty often


And when I get drunk

    1  2  3  4  5  6  7  8  9  10  11  12  13  14  15  16
E | ------------------------------------------------------- |
B | ------------------------------------------------------- |
G | ------------------------------------------------------- |
D | ---8-----8-----8-----8-----8-------8-------8-------8--- |
A | 9-----9-----9-----9-----9------9-------9-------9------- |
E | ------------------------------------------------------- |

    1  2  3  4  5  6  7  8  9  10  11  12  13  14  15  16
E | ------------------------------------------------------- |
B | ------------------------------------------------------- |
G | ------------------------------------------------------- |
D | ---3-----3-----3-----3-----3-------3-------3-------3--- |
A | 4-----4-----4-----4-----4------4-------4-------4------- |
E | ------------------------------------------------------- |

    1  2  3  4  5  6  7  8  9  10  11  12  13  14  15  16
E | ------------------------------------------------------- |
B | ------------------------------------------------------- |
G | ------------------------------------------------------- |
D | ---1-----1-----1-----1-----1-------1-------1-------1--- |
A | 2-----2-----2-----2-----2------2-------2-------2------- |
E | ------------------------------------------------------- |

    1  2  3  4  5  6  7  8  9  10  11  12  13  14  15  16
E | ------------------------------------------------------- |
B | ------------------------------------------------------- |
G | ------------------------------------------------------- |
D | ------------------------------------------------------- |
A | 0-----0-----0-----0-----0------0-------0-------0------- |
E | ---9-----9-----9-----9-----9-------9-------9-------9--- |

    1  2  3  4  5  6  7  8  9  10  11  12  13  14  15  16
E | ------------------------------------------------------- |
B | ------------------------------------------------------- |
G | ------------------------------------------------------- |
D | ---8-----8-----8-----8-----8-------8-------8-------8--- |
A | 9-----9-----9-----9-----9------9-------9-------9------- |
E | ------------------------------------------------------- |

    1  2  3  4  5  6  7  8  9  10  11  12  13  14  15  16
E | ------------------------------------------------------- |
B | ------------------------------------------------------- |
G | ------------------------------------------------------- |
D | ---6-----6-----6-----6-----6-------6------------------- |
A | 7-----7-----7-----7-----7------7-------7==============- |
E | ------------------------------------------------------- |

I ask you for another second chance

    1  2  3  4  5  6  7  8  9  10  11  12  13  14  15  16
E | ------------------------------------------------------- |
B | ------------------------------------------------------- |
G | 11===-10==============================================- |
D | ---------------8-----8-----8-------8------------------- |
A | ------------9-----9-----9------9-------9==============- |
E | ------------------------------------------------------- |

    1  2  3  4  5  6  7  8  9  10  11  12  13  14  15  16
E | ------------------------------------------------------- |
B | ------------------------------------------------------- |
G | 11===-10==============================================- |
D | ---------------8-----8-----8-------8------------------- |
A | ------------9-----9-----9------9-------9==============- |
E | ------------------------------------------------------- |

    1  2  3  4  5  6  7  8  9  10  11  12  13  14  15  16
E | ------------------------------------------------------- |
B | ------------------------------------------------------- |
G | 11===-10-------8-----8-----8-------8-------8-------8--- |
D | ------------------------------------------------------- |
A | ------------9-----9-----9------9-------9-------9------- |
E | ------------------------------------------------------- |


    1  2  3  4  5  6  7  8  9  10  11  12  13  14  15  16
E | ------------------------------------------------------- |
B | ------------------------------------------------------- |
G | ---------------8-----8-----8-------8-------8-------8--- |
D | ------------------------------------------------------- |
A | (9--9--9--9)9-----9-----9------9-------9-------9------- |
E | ------------------------------------------------------- |

Also repeated some times


And when I get drunk

    1  2  3  4  5  6  7  8  9  10  11  12  13  14  15  16
E | ------------------------------------------------------- |
B | ------------------------------------------------------- |
G | ------------------------------------------------------- |
D | ---8-----8-----8-----8-----8-------8-------8-------8--- |
A | 9-----9-----9-----9-----9------9-------9-------9------- |
E | ------------------------------------------------------- |

    1  2  3  4  5  6  7  8  9  10  11  12  13  14  15  16
E | ------------------------------------------------------- |
B | ------------------------------------------------------- |
G | ------------------------------------------------------- |
D | ---3-----3-----3-----3-----3-------3-------3-------3--- |
A | 4-----4-----4-----4-----4------4-------4-------4------- |
E | ------------------------------------------------------- |

    1  2  3  4  5  6  7  8  9  10  11  12  13  14  15  16
E | ------------------------------------------------------- |
B | ------------------------------------------------------- |
G | ------------------------------------------------------- |
D | ---1-----1-----1-----1-----1-------1-------1-------1--- |
A | 2-----2-----2-----2-----2------2-------2-------2------- |
E | ------------------------------------------------------- |

    1  2  3  4  5  6  7  8  9  10  11  12  13  14  15  16
E | ------------------------------------------------------- |
B | ------------------------------------------------------- |
G | ------------------------------------------------------- |
D | ------------------------------------------------------- |
A | 0-----0-----0-----0-----0------0-------0-------0------- |
E | ---9-----9-----9-----9-----9-------9-------9-------9--- |

    1  2  3  4  5  6  7  8  9  10  11  12  13  14  15  16
E | ------------------------------------------------------- |
B | ------------------------------------------------------- |
G | ------------------------------------------------------- |
D | ---8-----8-----8-----8-----8-------8-------8-------8--- |
A | 9-----9-----9-----9-----9------9-------9-------9------- |
E | ------------------------------------------------------- |

    1  2  3  4  5  6  7  8  9  10  11  12  13  14  15  16
E | ------------------------------------------------------- |
B | ------------------------------------------------------- |
G | ------------------------------------------------------- |
D | ---6-----6-----6-----6-----6-------6------------------- |
A | 7-----7-----7-----7-----7------7-------7==============- |
E | ------------------------------------------------------- |


You know I'm grateful

    1  2  3  4  5  6  7  8  9  10  11  12  13  14  15  16
E | ------------------------------------------------------- |
B | ------------------------------------------------------- |
G | ------------------------------------------------------- |
D | ---1-----1-----3-----3-----8-------8-------8-------8--- | repeated
A | 2-----2-----4-----4-----9------9-------9-------9------- |
E | ------------------------------------------------------- |


Afterwards, repeat everything once again (because when Steve enters it's all just 
repeating everything)

And please don't forget to rate or write a comment so I know what I can improve! Thanks 
& I hope you enjoyed playing this wonderful song! :)
Tap to rate this tab
# A B C D E F G H I J K L M N O P Q R S T U V W X Y Z