Song name
# A B C D E F G H I J K L M N O P Q R S T U V W X Y Z

Placebo - Hold On To Me tab

Song: Hold On To Me
Artist: PLACEBO
Album: Loud Like Love (2013)
Tuning: E A D G B e (Standard)

Verse 1:
E | --------------------------------------------------------------------- |
B | --------------------------------------------------------------------- |
G | --------------------------------------------------------------------- |
D | -13--15------15-------15---------15---------------------------------- |
A | ---------13-------16------------------------------------------------- |
E | ----------------------------15--------------------------------------- |

Chorus:
E | --------------------------------------------------------------------- |
B | --------6--------6------6---------4----------4--------4-------------- |
G | -----6--------6----------------5---------5--------------------------- |
D | --8--------8--------8-------6--------6-----------6------------------- |
A | --------------------------------------------------------------------- |
E | --------------------------------------------------------------------- |

E | --------------------------------------------------------------------- |
B | --------4--------4------4----------2--------2-------2---------------- |
G | -----3--------3-----------------3--------3--------------------------- |
D | --4--------4--------4--------4--------4--------4--------------------- |
A | --------------------------------------------------------------------- |
E | --------------------------------------------------------------------- |

Verse 2:
E | --------------------------------------------------------------------- |
B | --------------------------------------------------------------------- |
G | --------------------------------------------------------------------- |
D | -13--15------15-------15---------15---------------------------------- |
A | ---------13-------16------------------------------------------------- |
E | ----------------------------15--------------------------------------- |

Chorus [x2]
E | --------------------------------------------------------------------- |
B | --------6--------6------6---------4----------4--------4-------------- |
G | -----6--------6----------------5---------5--------------------------- |
D | --8--------8--------8-------6--------6-----------6------------------- |
A | --------------------------------------------------------------------- |
E | --------------------------------------------------------------------- |

E | --------------------------------------------------------------------- |
B | --------4--------4------4----------2--------2-------2---------------- |
G | -----3--------3-----------------3--------3--------------------------- |
D | --4--------4--------4--------4--------4--------4--------------------- |
A | --------------------------------------------------------------------- |
E | --------------------------------------------------------------------- |

Interlude (until the end):
E | --------------------------------------------------------------------- |
B | --------------------------------------------------------------------- |
G | --------------------------------------------------------------------- |
D | -15-------13--------------------13----------------------------------- |
A | -----13-------13----16--13----------13------------------------------- |
E | --------------------------------------------------------------------- |
Tap to rate this tab
# A B C D E F G H I J K L M N O P Q R S T U V W X Y Z