Song name
# A B C D E F G H I J K L M N O P Q R S T U V W X Y Z

Placebo - Sleeping With Ghosts tab

Artist   : Placebo
Title    : Sleeping With Ghosts
Album    : Sleeping With Ghosts

Tabbed by: dustin7up
E-mail   : dustin7up@gmail.com
Tuning   : 1/2 Step Up {F,Bb,Eb,Ab,C,F}


May 16, 2007



{NOTE: I know this might not be 100% perfect,
       and this might not be the way they play it, but
       this is just how I play it. And it sounds
       AWESOME! :)  Hope you like it!}






Background Strumming Through the Song:
      Bb				  Db
F|----0--0--0---0-0--0-0-0-0----------|---0--0--0---0-0--0-0-0-0----------|
C|----0--0--0---3-3--3-3-3-3----------|---0--0--0---5-5--5-5-5-5----------|
Ab|---2--2--2---2-2--2-2-2-2----------|---5--5--5---0-0--0-0-0-0----------|
Eb|---2--2--2---2-2--2-2-2-2---{x2}---|---5--5--5---5-5--5-5-5-5---{x2}---|
Bb|---0--0--0---0-0--0-0-0-0----------|---3--3--3---3-3--3-3-3-3----------|
F|----0--0--0---0-0--0-0-0-0----------|---0--0--0---0-0--0-0-0-0----------|



Intro: (00:00 - 00:11)
F|-------------------------------------------------------------------------|
C|----17-17-17-17---15-15-15-15--15-15---13-13-13-13--12-12-12-12--12-12---|
Ab|------------------------------------------------------------------------|
Eb|------------------------------------------------------------------------| {x2}
Bb|------------------------------------------------------------------------|
F|-------------------------------------------------------------------------|

Guitar 2:
F|------------------------------------|
C|------------------------------------|
Ab|---4-5------4-5------4-5~---5-4~---|
Eb|--------5~-------5~----------------|
Bb|-----------------------------------|
F|------------------------------------|



Verse 1: (00:12 - 00:57)

Guitar 2:
F|------------------------------------------------------------------|
C|---------------------------------------------0~-------------------|
Ab|---4-5------4-5------4-5~--5-4~---4-5-------4~---4-5------5-4~---|
Eb|--------5~-------5~--------------------5~---5~--------5~---------|
Bb|--------------------------------------------0~-------------------|
F|------------------------------------------------------------------|

F|-----------------------------------------------------------|
C|-----------------------------0~----------------------------|
Ab|---4-5------4-5------4-5~---4~---4-5------4-5------5-4~---|
Eb|--------5~-------5~---------5~--------5~-------5~---------|
Bb|----------------------------0~----------------------------|
F|-----------------------------------------------------------|

Bb
The sea's evaporating,

			 Db    Bb
Though it comes as no surprise.


These clouds we're seeing,

		        Db    Bb
They're explosions in the sky.


It seems it's written,

			      Db
But we can't read between the line.

Bb		     Db			Bb
Hush. It's okay. Dry your eye. Dry your eye.



Chorus: (00:58 - 01:21)

Guitar 2:
F|-------------------------------------------------------------------------|
C|----17-17-17-17---15-15-15-15--15-15---13-13-13-13--12-12-12-12--12-12---|
Ab|------------------------------------------------------------------------|
Eb|------------------------------------------------------------------------| {x4}
Bb|------------------------------------------------------------------------|
F|-------------------------------------------------------------------------|

	     Db
Soulmate dry your eye.

	 Bb
Dry your eye.

	     Db
Soulmate dry your eye.

		      Bb
Cause soulmates never die.



Pre-Verse Guitar 2: (01:22 - 01:32)
F|-----------------------------------|
C|-----------------------------------|
Ab|---4-5------4-5------4-5~--5-4~---|
Eb|--------5~-------5~---------------|
Bb|----------------------------------|
F|-----------------------------------|



Verse 2: (01:33 - 02:19)

Guitar 2:
F|-------------------------|
C|----0~-------------------|
Ab|---4~---4-5------5-4~---|
Eb|---5~--------5~---------| {x4}
Bb|---0~-------------------|
F|-------------------------|


Bb
This one world vision,

		     Db   Bb
Turns us in to compromise.


What good's religion,

			   Db   Bb
When it's each other we despise.


Damn the government,

			       Db
Damn their killing. Damn their lies,

Bb		     Db			Bb
Hush. It's okay. Dry your eye. Dry your eye.



REPEAT CHORUS: (02:20 - 03:06)





Tap to rate this tab
# A B C D E F G H I J K L M N O P Q R S T U V W X Y Z