Song name
# A B C D E F G H I J K L M N O P Q R S T U V W X Y Z

Placebo - Slackerbitch tab

----------------------------------------------------------------------------
			     Slackerbitch-Placebo
----------------------------------------------------------------------------
Tabbed by:Ash Bidad			
Email:ashleybidad1@hotmail.com

Tuning:Standard
  Intro/verse (i cant remember how many but do this several times)
e|--------------------------------------------------------------------------
B|---9----9----9---9-----5---5-----5---5---5--------------------------------
G|--------------------------------------------------------------------------
D|--------------------------------------------------------------------------
A|-9----9---9----9----5----5----5----5---5----------------------------------
E|--------------------------------------------------------------------------
  "It echoes in my brain"
  Prechorus
e|--------------------------------------------------------------------------
B|--------------------------------------------------------------------------
G|-6---4--------------------------------------------------------------------
D|-6---4--------------------------------------------------------------------
A|-4---2--------------------------------------------------------------------
E|--------------------------------------------------------------------------

e|--------------------------------------------------------------------------
B|-9--9-9--5--5--5----------------------------------------------------------
G|-x--x-x--x--x--x----------------------------------------------------------
D|-x--x-x--x--x--x----------------------------------------------------------
A|-9--9-9--5--5--5----------------------------------------------------------
E|--------------------------------------------------------------------------
  "Slackerbitch, fag hag whore..."    
E-mail me if you have any corrections.
Tap to rate this tab
# A B C D E F G H I J K L M N O P Q R S T U V W X Y Z